Cifra Club

Aprenda

Hurt

Johnny Cash

Cifra: Aula-completa (violão e guitarra)
Tom: G
[Intro] Am  C  D  Am  C  D

   Am       C         D
E|------0--------0---------2----------------|
B|------1--------1---------3----------------|
G|------2--------0------2--2-2--------------|
D|---2--2-----2--2----0----0----------------|
A|-0----0---3----3-3------------------------|
E|------------------------------------------|

[Primeira parte]

Am    C      D      Am
   I hurt myself today
    C     D        Am
To see if I still feel
   C    D         Am
I focus   on the pain
    C      D           Am
The only thing that's real
     C      D       Am
The needle tears a hole
    C      D       Am
The old familiar sting
        C      D       Am
Try to kill it   all away
         C     D 
But I remember everything

[TAB - primeira parte]

   Am       C         D
E|------0--------0---------2----------------|
B|------1--------1---------3----------------|
G|------2--------0------2--2-2--------------|
D|---2--2-----2--2----0----0----------------|
A|-0----0---3----3-3------------------------|
E|------------------------------------------|

[Refrão]

G   Am7            F9   
  What have I become
C               G
  My sweetest friend?
Am7          F9        C         G     
Everyone I know goes away in the end
     Am7              F9
And you could have it all
 G
My empire of dirt
Am7             F9
I will let you down
G
I will make you hurt

( Am  C  D  Am  C  D  Am )

   Am       C         D
E|------0--------0---------2----------------|
B|------1--------1---------3----------------|
G|------2--------0------2--2-2--------------|
D|---2--2-----2--2----0----0----------------|
A|-0----0---3----3-3------------------------|
E|------------------------------------------|


[Segunda parte]

   C          D        Am
I wear this crown of thorns
  C      D       Am
Upon my liar's chair
 C        D      Am
Full of broken thoughts
C     D     Am
I cannot repair
   C          D        Am
Beneath the stains of time
      C      D       Am
The feelings   disappear
 C       D      Am
You are someone else
C      D          
I am still right here

[TAB - Segunda parte]

   Am       C         D
E|------0--------0---------2----------------|
B|------1--------1---------3----------------|
G|------2--------0------2--2-2--------------|
D|---2--2-----2--2----0----0----------------|
A|-0----0---3----3-3------------------------|
E|------------------------------------------|


[Refrão Final]

G   Am7            F9   
  What have I become
C               G
  My sweetest friend?
Am7          F9        C         G     
Everyone I know goes away in the end
     Am7              F9
And you could have it all
 G
My empire of dirt
Am7             F9
I will let you down
G
I will make you hurt
   Am7             F9
If I could start again
   G 
A million miles away
Am7             F9
I would keep myself
G
I would find a way
Composição de Trent Reznor
Colaboração e revisão:
  • Caico Antunes
3.814 exibições
    • ½ Tom
    • A
    • Bb
    • B
    • C
    • Db
    • D
    • Eb
    • E
    • F
    • F#
    • G
    • Ab
  • Adicionar à lista

    0 comentários

    Mostrar mais comentários
    00:00 / 00:00
    outros vídeos desta música
    repetir qualidade Automático
    Outros vídeos desta música
    00:00 / 00:00
    Automático
    Capítulos
    • Tocando a Música
    • Apresentação / Equipamentos
    • Acordes da Introdução e Primeira Parte
    • Tocando Introdução e Primeira Parte
    • Ensinando Dedilhado
    • Acordes Refrão
    • Tocando Refrão
    • Ensinando Refrão
    • Encerramento
    OK