Cifra Club

Aprenda

Walk The Line

Johnny Cash

Tab de baixo: Principal
G|--------------------------------------
D|--------------------------------------
A|-----------------0-1---1-1-0-----3----
E|-1-3-----1----------------------------

G|----------------------------------------------------
D|----------------------------------------------------
A|-1-1-0------3-3-------3---3-1--0-----3---3---3---3--
E|--------3-1-----1-3-1---3--------3-1---1---1---1----
Composição de Johnny Cash
Colaboração e revisão:
  • Gabriel Prestes
446 exibições

0 comentários

Ver todos os comentários

Conseguiu tocar?

0 Tocaram 0 Ainda não

Grave um vídeo tocando Walk The Line e nos envie!

00:00 / 00:00
outros vídeos desta música
repetir qualidade Automático
Outros vídeos desta música
00:00 / 00:00
Automático

Cifra Club Pro

Aproveite o Cifra Club com benefícios exclusivos e sem anúncios
Cifra Club Pro
Aproveite o Cifra Club com benefícios exclusivos e sem anúncios
OK