Personal Jesus

Johnny Cash

Composição de: Martin Gore
tom: D
[Intro] Em

E|------------------------------------|
B|------------------------------------|
G|------------------------------------|
D|--2--------2-----------------2------|
A|--2---------------------------------|
E|--0--3--0-----3--0--0--3--0-----3--0|

E|------------------------------------|
B|------------------------------------|
G|--2--------2------------------------|
D|--2--------2----0-0-0----0-0-0------|
A|--0--3--0--0----2-2-2----0-0-0------|
E|----------------3-3-3----2-2-2------|
    A             G        D/F#

     Em
Your own, personal, Jesus

Someone to hear your prayers
                    A       G  D/F#
Someone who cares
     Em
Your own, personal, Jesus

Someone to hear your prayers
                    A       G  D/F#  Em
Someone who's there

Em
Feeling unknown, and you're all alone
G               D
flesh and bone, by the telephone
Am
lift up the receiver
     B7               C7           Em
I'll make you a believer

Em
Take second best, put me to the test
G                     D
Things on your chest, you need to confess
Am                  B7               C7            Em
I will deliver, you know I'm a forgiver

F#  F                       Em
     Reach out and touch faith
F#  F                       Em
     Reach out and touch faith

     Em
Your own, personal, Jesus

Someone to hear your prayers
                       A       G  D/F#
Someone who cares
     Em
Your own, personal, Jesus

Someone to hear your prayers
                         A       G  D/F#  Em
Someone who's there

Em
Feeling unknown, and you're all alone
G               D
Flesh and bone, by the telephone
Am
Lift up the receiver
     B7               C7           Em
I'll make you a believer
Am                  B7              C7           Em
I will deliver, you know I'm a forgiver

F#  F                       Em
     Reach out and touch faith
F#  F                       Em
     Reach out and touch faith
F#  F                       Em
     Reach out and touch faith
F#  F                       Em
     Reach out and touch faith
Página 1 / 1

Letras e título
Acordes e artista

resetar configurações
OK