Cifra Club

Aprenda

Too Little Too Late

JoJo

Cifra: Principal (violão e guitarra)
Tom: A
Chords: Bm, E, A
Variations: Asus2, Asus4

INTRO (x1 without any lyrics)
VERSE 1 (x2)

E|-------------------------------------------------------------------|
B|--------2-------0--------0-----0---0h2-----------------------------|
G|-----2-------2--------------------------2-2s4----------------------|
D|--0-------------------2-----2--------------------------------------|
A|-------------------------------------------------------------------|
E|----------2--------0-----------------------------------------------|

      Come     stay     you   boy it don't feel right
      You      say      boy   beggin' don't fool me
E|--------------------------------0----------------------------------|
B|--------2-------0--------------------------------------------------|
G|-----2-------2-----------1-----------1-----2-----------------------|
D|--0-------------------2------2-----2---4p2-------------------------|
A|-------------------------------------------------------------------|
E|----------2--------0-----------------------------------------------|
      What     me            You know it's just too little too late
      Because  it's          You know it's just too little too late

VERSE 1 lyrics
Come with me, stay the night,
You say the words, but boy it don't feel right,
What do you expect me to say (You know it's just too little too late).
You take my hand, and you say you've changed,
But boy you know your beggin' don't fool me,
Because to you, it's just a game (You know it's just too little too late).

-PRECHORUS 1-

   Asus2
So let me on down,
      E
Cause time has made me strong, I'm startin' to move on,
    Asus2
I'm gonna say this now,
     E
Your chance has come and gone.
               Bm
And you know...

-CHORUS 1-
              A
It's just too little too late,
  F#m               E
A little too wrong,
                 Bm
And I can't wait,
             A                       F#m       E
Boy you know all the right things to say (You know it's just too little too
Bm
late.)
            A
You say you dream of my face,
    F#m                E
But you don't like me,
                        Bm
You just like the chase.
               A                 F#m        E
To be real, it doesn't matter anyway, (You know it's just too little too late.)

INTRO  (x1 without any lyrics)
VERSE 2 (x1)

E|-------------------------------------------------------------------|
B|--------2-------0--------0-----0---0h2-----------------------------|
G|-----2-------2--------------------------2-2s4----------------------|
D|--0-------------------2-----2--------------------------------------|
A|-------------------------------------------------------------------|
E|----------2--------0-----------------------------------------------|

      I        and      gave  but it wasn't enough

E|--------------------------------0----------------------------------|
B|--------2-------0--------------------------------------------------|
G|-----2-------2-----------1-----------1-----2-----------------------|
D|--0-------------------2------2-----2---4p2-------------------------|
A|-------------------------------------------------------------------|
E|----------2--------0-----------------------------------------------|
      And      communicate   You know it's just too little too late

VERSE 2 lyrics
I was young, and in love,
I gave you everything, but it wasn't enough.
And now you wanna communicate.

-PRECHORUS 2-
   Asus2
Go find someone else,
   E
In lettin' you go, I'm lovin' myself,
    Asus2
You got a problem,
    E
But don't come askin' me for help.
                Bm
Cause ya know...

-CHORUS 2-
              A
It's just too little too late,
  F#m               E
A little too wrong,
                 Bm
And I can't wait,
             A                       F#m       E
Boy you know all the right things to say (You know it's just too little too
Bm
late.)
            A
You say you dream of my face,
    Bm                E
But you don't like me,
                        F#m
You just like the chase.
               A                 F#m        E
To be real, it doesn't matter anyway, (You know it's just too little too late.)

-BRIDGE-

Bm              A
I can love with all of my heart baby,
E                                                 A
I know I have so much to give (I have so much to give.)
Bm                      A
With a player like you, I don't have a prayer,
Asus4             Asus2
That's the way to live,

Yeah, oh.

It's just too little, too late.

N.C.
Yeah!

-CHORUS 3-
Bm              A
It's just too little too late (too little),
  F#m               E
A little too wrong,
                 Bm
And I can't wait,
             A                       F#m       E
Boy you know all the right things to say (You know it's just too little too
Bm
late.)
            A
You say you dream of my face,
    F#m                E
But you don't like me,
                        Bm
You just like the chase.
               A                 F#m        E
To be real, it doesn't matter anyway, (You know it's just too little too late.)

Repeat Bm, A, F#m, E until end.
Composição de Adam Wilson / Billy Steinberg / Brendon James / Josh Alexander / Ruth-Anne Cunningham / Tom Welham / Will South
Colaboração e revisão:
  • Armando Lemos
  • Anna Ventura
  • Gina Camurugy
129.864 exibições
    • ½ Tom
    • A
    • Bb
    • B
    • C
    • Db
    • D
    • Eb
    • E
    • F
    • F#
    • G
    • Ab
  • Adicionar à lista

    0 comentários

    Mostrar mais comentários

    Conseguiu tocar?

    8 Tocaram 0 Ainda não

    Grave um vídeo tocando Too Little Too Late e mande pra gente!

    00:00 / 00:00
    outros vídeos desta música
    repetir qualidade Automático
    Outros vídeos desta música
    00:00 / 00:00
    Automático

    Cifra Club Pro

    Aproveite o Cifra Club com benefícios exclusivos e sem anúncios
    Cifra Club Pro
    Aproveite o Cifra Club com benefícios exclusivos e sem anúncios
    OK