Cifra Club

Aprenda

Give Love a Try

Jonas Brothers

Cifra: Principal (violão e guitarra)
tom: C
Intro / Verso:
E|-------------------|
B|--------x------x---|
G|----4---x--4h5-x---|   (2x)
D|--------x------x---|
A|--3-----x--3---x---|
E|--------x------x---|

E|-------------------|
B|------x------x-----|
G|----4-x--4h5-x-----|   (2x)
D|------x------x-----|
A|--0---x--0---x-----|
E|------x------x-----|

E|-------------------|
B|------x------x-----|
G|----5-x--5p4-x-----|
D|------x------x-----|
A|------x------x-----|
E|--3---x--3---x-----|

E|-------------------|
B|------x------------|
G|----2-x----2p0-----|
D|------x------------|
A|------x------------|
E|--1---x--1---------|

You, like driving on a Sunday
You, like taking off on Monday
You, you're like a dream, dream come true
I, was just a face you never noticed
And I, I'm just trying to be honest with myself
With you, with the world

Refrão:
E|---------------------------------------------|
B|-----5--x--5--x-------x-----x----3--x--3-x---|
G|-----5--x--5--x----0--x--0--x----3--x--3-x---|
D|--------x-----x----2--x--2--x-------x----x---|
A|--5-----x--5--x--3----x--3--x--3----x--3-x---|
E|--------x-----x-------x-----x-------x----x---|

E|---------------------------------------------|
B|-----x-----x---------------------------------|
G|---2-x--2--x---------------------------------|  (2x)
D|-----x-----x---------------------------------|
A|-----x-----x---------------------------------|
E|-1---x--1--x---------------------------------|

E|---------------------------------------------|
B|------x-----x--------------------------------|
G|---1--x--1--x--------------------------------|
D|------x-----x--------------------------------|
A|------x-----x--------------------------------|
E|-1----x--1--x--------------------------------|

E|---------------------------------------------|
B|-------x-----x----3--x--3-x------------------|
G|----0--x--0--x----3--x--3-x------------------|
D|----2--x--2--x-------x----x------------------|
A|--3----x--3--x--3----x--3-x------------------|
E|-------x-----x-------x----x------------------|

E|---------------------------------------------|
B|---------------------------------------------|
G|---2-x--2--x-----1---------------------------|
D|-----x-----x---------------------------------|
A|-----x-----x---------------------------------|
E|-1---x--1--x-----1---------------------------|
D2(7)
You might think
     C
that I'm a fool
    C2(7)          F
for falling over you
           D2(7)
So tell me what can I
C
do to prove to you
         C2(7)          F
That its not so hard to do
      Fm        C
Give love a try one more time
      C2(7)               F
Cause you know that I'm on your side
 Fm
Give love a try, one more time

How, did it play out like a movie?
Now, every time you speaks it  moves me
And I can't get your smile off my mind
And your eyes, when I saw them for the first time
Knew that I, was gonna love you for a long time
With a love, so real, so right

Refrão:
D2(7)
You might think
     C
that I'm a fool
    C2(7)          F
for falling over you
           D2(7)
So tell me what can I
C
do to prove to you
         C2(7)          F
That its not so hard to do
      Fm        C
Give love a try one more time
      C2(7)               F
Cause you know that I'm on your side
 Fm
Give love a try, one more time
Composição de Joe Jonas / Nick Jonas / Paul Jonas
404.874 exibições
    • ½ Tom
    • A
    • Bb
    • B
    • C
    • Db
    • D
    • Eb
    • E
    • F
    • F#
    • G
    • Ab
  • Adicionar à lista

    0 comentários

    Ver todos os comentários

    Conseguiu tocar?

    287 Tocaram 5 Ainda não

    Grave um vídeo tocando Give Love a Try e nos envie!

    00:00 / 00:00
    outros vídeos desta música
    repetir qualidade Automático
    Outros vídeos desta música
    00:00 / 00:00
    Automático
    Capítulos
    • Início
    • Tocando a música
    • Tocando trecho da primeira parte
    • Ensinando dedilhado 1
    • Acordes do refrão
    • Tocando refrão
    • Ensinando ritmo do refrão
    • Encerramento

    Cifra Club Pro

    Aproveite o Cifra Club com benefícios exclusivos e sem anúncios
    Cifra Club Pro
    Aproveite o Cifra Club com benefícios exclusivos e sem anúncios
    OK