Cifra Club

Aprenda

Amor Não É Jogo de Azar

Jorge & Mateus

Cifra: Principal (violão e guitarra)
Já pensou em usar uma coleção de roupas do Cifra Club? Responda as perguntas abaixo e nos ajude nessa missão! →
tom: F#
[Intro] F#  C#  D#m  C#  B  C#  F#

E|-------------------------------------------------|
B|-----2~--4-2~------2-2~--7p6----------7-7~-9-7~--|
G|---3-----4-3~--2h3--2--------8-6~-6/8--6--------~|
D|--4-4--------------------------------------------|
A|-------------------------------------------------|
E|-------------------------------------------------|

E|--------------------------------9------|
B|-777-6-6~-666--------7-9~-7--9b11r9-7--|
G|------8------8-6-8~--6-8~-6------------|
D|---------------------------------------|
A|---------------------------------------|
E|---------------------------------------|

E|-7x-----------|
B|--7/9~---7----|
G|------6/8-8~--|
D|--------------|
A|--------------|
E|--------------|

F#                    G#m 
Tá na hora de você voltar pra mim
    B                          F#
E dar mais uma chance pra nós dois
F#              F#7           B
Meu bem a gente já se machucou demais
F#            C#          F#  
Está na hora de voltar atrás

F#                            G#m 
Melhor deixar falar a voz do coração
    B                     F#
Preciso de você, você de mim
F#               F#7              B
Pra que fazer de conta que já não da mais
F#           C#           F#
Está na hora de voltar atrás

F#                 C#
E a gente ainda se ama
                 D#m
Está na cara, está no ar
                    C#              B
Fica chorando escondido é tempo perdido
 C#           F#
Amor não é jogo de azar
F#                 C#
E a gente ainda se ama
                 D#m
Está escrito no coração
            C#                 B
A nossa pirraça já perdeu a graça
C#        F#
chega de solidão

[Solo] F#  C#  B  C#  F#  F#4  F# 

E|--------------------------------------|
B|-----7-7~--9-9--7-6-7-9-7s5----7----7/|
G|6-6h8-----------------------6/8-8p6-6/|
D|--------------------------------------|
A|--------------------------------------|
E|--------------------------------------|

F#                            G#m 
Melhor deixar falar a voz do coração
    B                     F#
Preciso de você, você de mim
F#               F#7           B
Pra que fazer de conta que já não da mais
F#           C#           F#
Está na hora de voltar atrás

Refrão 
F#                 C#
E a gente ainda se ama
                 D#m
Está na cara, está no ar
                    C#              B
Fica chorando escondido é tempo perdido
 C#           F#
Amor não é jogo de azar
F#                 C#
E a gente ainda se ama
                 D#m
Está escrito no coração
            C#                 B
A nossa pirraça já perdeu a graça
C#          F#
chega de solidão

E|--------------|
B|--7p6--7-9-7--|
G|------6-6--6--|
D|--------------|
A|--------------|
E|--------------|
Composição de Bruno / Elias Muniz / Felipe
Colaboração e revisão:
780.783 exibições
    • ½ Tom
    • A
    • Bb
    • B
    • C
    • Db
    • D
    • Eb
    • E
    • F
    • F#
    • G
    • Ab
  • Adicionar à lista

    0 comentários

    Ver todos os comentários
    00:00 / 00:00
    Outros vídeos desta música
    Repetir Qualidade Automático
    Outros vídeos desta música
    00:00 / 00:00
    Automático

    Cifra Club Pro

    Aproveite o Cifra Club com benefícios exclusivos e sem anúncios
    Cifra Club Pro
    Aproveite o Cifra Club com benefícios exclusivos e sem anúncios
    OK