Lance Individual

Jorge & Mateus

Composição de: Lari Ferreira / Diego Silveira / Junior Pepato / Rafa Borges
tom: F
[Intro] Gm  Bb2

[Tab - Solo Intro] 

Parte 1 de 2
E|-----------------------------------------------------|
B|-/6-6-6-6-6-6h8-6-5----------------------------------|
G|---------------------5-5-5-5---5h7-------------------|
D|-----------------------------7-----------------------|
A|-----------------------------------------------------|
E|-----------------------------------------------------|

Parte 2 de 2
E|-----------------------------------------------------|
B|-/6-6-6-6-6-6-5--5h6--5--6--8--10p8\6----------------|
G|-/7-7-7-7-7-7-5--5h7--5------------------------------|
D|-----------------------------------------------------|
A|-----------------------------------------------------|
E|-----------------------------------------------------|

[Primeira Parte] 

[Tab - Dedilhado Primeira Parte]

Parte 1 de 3
   F                 C2
E|----------x-----------------x-------------|
B|-----1-1--x----1-------3-3--x----3--------|
G|-----2-2--x----2-------5-5--x----5--------|
D|---3------x----3-----5------x----5--------|
A|----------x--------3--------x--3----------|
E|-1--------x--1--------------x-------------|

Parte 2 de 3
  Gm                 Bb2
E|----------x-----------------x-------------|
B|-----3-3--x----3-------1-1--x----1--------|
G|-----3-3--x----3-------3-3--x----3--------|
D|---5------x----5-----3------x----3--------|
A|----------x--------1--------x--1----------|
E|-3--------x--3--------------x-------------|

Parte 1 de 3
   F                 C2
E|-1--------x-----------------x-------------|
B|-1---1-1--x----1-------3-3--x----3--------|
G|-2---2-2--x----2-------5-5--x----5--------|
D|-3-3------x----3-----5------x----5--------|
A|-3--------x--------3--------x--3----------|
E|-1--------x--1--------------x-------------|

Parte 2 de 3
  Gm                 Bb2
E|----------x-----------------x-------------|
B|-----3-3--x----3-------1-1--x----1--------|
G|-----3-3--x----3-------3-3--x----3--------|
D|---5------x----5-----3------x----3--------|
A|----------x--------1--------x--1----------|
E|-3--------x--3--------------x-------------|

Parte 3 de 3
  C2                 Bb2    C2     F
E|----------x--------1--1---3--3---1--------|
B|-----3-3--x----3---1--1---3--3---1--------|
G|-----5-5--x----5---3--3---5--5---2--------|
D|---5------x----5---3--3---5--5---3--------|
A|-3--------x--3-----1--1---3--3---3--------|
E|----------x----------------------1--------|
                     ↓  ↓   ↓  ↓   ↓

F                   C2
  Já namorou ou noivou
                    Gm
Já morou junto, largou
                Bb2                  F
Já conheci sua mãe, o seu pai, seu avô
                   C2
Já adotamos um cachorro
                      Gm
Já teve a senha um do outro
                    Bb2
E não dá nem pra negar
                               C2
Que os nossos pega é de outro mundo
       Bb2         C2     F
Mas a gente já tentou de tudo

[Refrão] 

                        C2
A gente já tentou de tudo 

Pra ser um casal
Gm                            Bb2
   Mas já saquei que o nosso lance 
          F
É individual
                  C2
Cê na sua, eu na minha
                  Gm
Deu saudade, campainha
                  Bb2
Eu entro no seu quarto
                      F
Mas não entro na sua vida

               C2
A gente já tentou de tudo

Pra ser um casal
Gm                            Bb2
   Mas já saquei que o nosso lance 
          F
É individual
                  C2
Cê na sua, eu na minha
                  Gm
Deu saudade, campainha

                   Bb2
Eu entro no seu quarto
                      F    
Mas não entro na sua vida

[Solo] C2  Gm  Bb2  F 
       C2  Gm  Bb2

[Tab - Solo] 

Parte 1 de 3
E|-----------------------------------------------------|
B|-/6-6-6-6-6-6h8-6-5----------------------------------|
G|---------------------5-5-5-5---5h7-------------------|
D|-----------------------------7-----------------------|
A|-----------------------------------------------------|
E|-----------------------------------------------------|

Parte 2 de 3
E|-----------------------------------------------------|
B|-/6-6-6-6-6-6-5--5h6--5------------------------------|
G|-/7-7-7-7-7-7-5--5h7--5------------------------------|
D|-------------------------3-5-5/7---------------------|
A|-----------------------------------------------------|
E|-----------------------------------------------------|

Parte 3 de 3
E|--------------------6p5----------6---5/6-5-----------|
B|------------------------6--6/8-------------6h8-6-----|
G|---------5-5h7------------------/7-------------------|
D|-5/7-7-7-------5-------------------------------------|
A|-----------------------------------------------------|
E|-----------------------------------------------------|

[Primeira Parte] 

F                   C2
  Já namorou ou noivou
                    Gm
Já morou junto, largou
                Bb2                  F
Já conheci sua mãe, o seu pai, seu avô
                   C2
Já adotamos um cachorro
                      Gm
Já teve a senha um do outro
                    Bb2
E não dá nem pra negar
                               C2
Que os nossos pega é de outro mundo
       Bb2         C2     F
Mas a gente já tentou de tudo

[Refrão] 

                        C2
A gente já tentou de tudo 

Pra ser um casal
Gm                            Bb2
   Mas já saquei que o nosso lance 
          F
É individual
                  C2
Cê na sua, eu na minha
                  Gm
Deu saudade, campainha
                  Bb2
Eu entro no seu quarto
                      F
Mas não entro na sua vida

               C2
A gente já tentou de tudo

Pra ser um casal
Gm                            Bb2
   Mas já saquei que o nosso lance 
          F
É individual
                  C2
Cê na sua, eu na minha
                  Gm
Deu saudade, campainha

                   Bb2
Eu entro no seu quarto
                      F    C2  
Mas não entro na sua vida
Gm                   Bb2
   Eu entro no seu quarto
                      F   C2
Mas não entro na sua vida
Gm                   Bb2
   Eu entro no seu quarto

[Tab - Solo Final]

E|-----------------------------------------------------|
B|-/6-6-6-6-6-6h8-6-6----------------------------------|
G|-----------------------------------------------------|
D|-----------------------------------------------------|
A|-----------------------------------------------------|
E|-----------------------------------------------------|

                      F
Mas não entro na sua vida
Página 1 / 1

Letras e título
Acordes e artista

resetar configurações
OK