Enviar cifraEntrar

Os Anjos Cantam

Jorge e Mateus

Tab de baixo: Principal
exibições 12.518
Introdução efeitos e teclados

Primeira parte 

No primeiro instante...no segundo instante...

parte 01

G|--------------------------------------------|
D|--------------------------------------------|
A|-17\--4-4---4-4--7-7---7-7------------------|
E|----------4----------7-----7-7---7-7--------|
B|-------------------------------7------------|

G|--------------------------------------------|
D|--------------------------------------------|
A|-9--9--9-----9\-----------------------------|
E|----------9---------------------------------|
B|--------------------------------------------|

Parte 02

G|--------------------------------------------|
D|--------------------------------------------|
A|-4--7---------------7-8-9--9--9--9----9\----|
E|-------7-7--7-7---7----------------9--------|
B|----------------7---------------------------|

G|--------------------------------------------|
D|--------------------------------------------|
A|-4-4---4-4--4-----7---7---7--7----7---7h9---|
E|-----4--------7h9---7---7-------7---7-------|
B|--------------------------------------------|

G|--------------------------------------------|
D|---------------9---9------------------------|
A|-------------9---9---9\--9-9-9------9--9----|
E|-7-7---7h9-7--------------------12\---------|
B|-----7--------------------------------------|

Refrão 

E os anjos cantam nosso amor...

Parte 01 ( tocar 2x )

G|--------------------------------------------|
D|--------------------------------------------|
A|-4---4-4-4--4-4---4--7-7---7----------------|
E|---4------------4--------7------------------|
B|--------------------------------------------|

G|--------------------------------------------|
D|-------6------------------------------------|
A|---9-7---9-6-------------7h9----------------|
E|-7------------7-7---7-9---------------------|
B|------------------7----------7--------------|

G|--------------------------------------------|
D|--------------------------------------------|
A|-6---6-9-6----------------------------------|
E|---9-------9-7------------------------------|
B|--------------------------------------------|

Introdução 02

Parte 01 

G|--------------------------------------------|
D|--------------------------------------------|
A|-4---4-4-4--4-4---4--7-7---7--7---7---------|
E|---4------------4--------7------7-----------|
B|--------------------------------------------|

G|--------------------------------------------|
D|--------------------------------------------|
A|--------------------9--9-9/15\--------------|
E|-7-7---7--7-7-7-7h9-------------------------|
B|-----7--------------------------------------|

Segunda parte

No primeiro instante,vi que era amor...

Parte 01

G|--------------------------------------------|
D|--------------------------------------------|
A|-4-4--4-4--4-4--7-7--7-7--7-7--9-9----------|
E|--------------------------------------------|
B|--------------------------------------------|

G|--------------------------------------------|
D|--------------------------------------------|
A|----------------9-9--9--9-9-9-9-9-9-9\------|
E|-7-7--7-7--7-7------------------------------|
B|--------------------------------------------|

Parte 02

G|--------------------------------------------|
D|--------------------------------------------|
A|-4-4-----4-4-6--7-7-----7-7---7-------------|
E|-----4-4------------7-7-----7---------------|
B|--------------------------------------------|

G|--------------------------------------------|
D|--------------------------------------------|
A|-------------------9--x9-x9-9-9--9-9-9------|
E|--7-7-----7-7---7---------------------------|
B|------7-7-----7-----------------------------|

Parte 03

G|--------------------------------------------|
D|--------------------------------------------|
A|-4-4-4---4-----4--7-7-7-----7---7---7h9-----|
E|-------4---4h6----------7-7---7---7---------|
B|--------------------------------------------|

G|--------------------------------------------|
D|--------------------------------------------|
A|------------------9\---9-9------------------|
E|-7-7-7---7-----7----------------------------|
B|-------7---7h9------------------------------|

Parte 04

G|--------------------------------------------|
D|--------------------------------------------|
A|-4-x4-----4-x4-6-7--x-----7--x7-9-----------|
E|------4-4-------------7-7-------------------|
B|--------------------------------------------|

G|--------------------------------------------|
D|--------------------------------------------|
A|-------------------9-9-9-9-9-9--9-9-9-9\----|
E|-7--x7-----7--x7-9--------------------------|
B|-------7-7----------------------------------|

G|--------------------------------------------|
D|--------------------------------------------|
A|--------------------------------------------|
E|-2h4----------------------------------------|
B|--------------------------------------------|

Segundo refrão 

E os anjos cantam nosso amor...

Parte 01 

G|--------------------------------------------|
D|--------------------------------------------|
A|-4---4-4-4--4-4---4--7-7---7----------------|
E|---4------------4--------7------------------|
B|--------------------------------------------|

G|--------------------------------------------|
D|-------6------------------------------------|
A|---9-7---9-6-------------7h9----------------|
E|-7------------7-7---7-9---------------------|
B|------------------7----------7--------------|

G|--------------------------------------------|
D|--------------------------------------------|
A|-6---6-9-6----------------------------------|
E|---9-------9-7------------------------------|
B|--------------------------------------------|

Parte 02

G|--------------------------------------------|
D|--------------------------------------------|
A|-4---4-4-4--4-4---4--7-7---7----------------|
E|---4------------4--------7------------------|
B|--------------------------------------------|

G|--------------------------------------------|
D|-------6------------------------------------|
A|---9-7---9-6-------------7h9----------------|
E|-7------------7-7---7-9---------------------|
B|------------------7----------7--------------|

G|--------------------------------------------|
D|--------------------------------------------|
A|-6---6-9-6------12\-------------------------|
E|---9-------9-7------------------------------|
B|--------------------------------------------|

Parte 03

G|--------------------------------------------|
D|--------------------------------------------|
A|-x4--x6-7\----------------------------------|
E|------------------x7--x7--x9h11-------------|
B|----------5--0-5-----------------7----------|

G|--------------------------------------------|
D|--------------------------------------------|
A|-6---6-9-6----------------------------------|
E|---9-------9-7------------------------------|
B|--------------------------------------------|

Parte 04 

G|--------------------------------------------|
D|------------11-9------9---------------------|
A|-2-------4-------11-9-----------------------|
E|---X-X-X------------------------------------|
B|--------------------------------------------|

G|--------------------------------------------|
D|---------------6----------------------------|
A|-7-7---7---9-7---9-6------------7h9---------|
E|-----7---7------------7-7---7-9-------------|
B|--------------------------7----------7------|

G|--------------------------------------------|
D|--------------------------------------------|
A|-6---6-9-6----------------------------------|
E|---9-------9-7\-4---------------------------|
B|--------------------------------------------|
  • 1
  • 2
  • 3
  • 4
  • 5
  • 6
  • 7
  • 8
  • 9
  • 10
  • 11
  • 12
    Composição: Jorge/Mateus/Neto Schaefer/Dudu BorgesColaboração e revisão:
    • Reginaldo
    • Ricardo
    • Gabriel

    0 comentários

      mostrar mais comentários

      Conseguiu tocar?

      0tocaram0ainda não

      Grave um vídeo tocando Os Anjos Cantam e mande pra gente!

      00:00 / 00:00
      outros vídeos desta música
      repetirqualidadeautomática
      • automática
      Outro vídeos desta música
        Capítulos
        • Tocando a música
        • Dicas Iniciais / Equipamentos
        • Primeira Parte - Parte 1 de 2
        • Primeira Parte - Parte 2 de 2
        • Primeiro Refrão
        • Segunda Introdução
        • Segunda Parte - Parte 1 de 4
        • Segunda Parte - Parte 2 de 4
        • Segunda Parte - Parte 3 de 4
        • Segunda Parte - Parte 4 de 4
        • Segundo Refrão - Parte 1 de 4
        • Segundo Refrão - Parte 2 de 4
        • Segundo Refrão - Parte 3 de 4
        • Segundo Refrão - Parte 4 de 4
        • Encerramento
        • Ficha Técnica / Erros de Gravação
        00:00 / 00:00
        automática
        • automática
        Acordes para:violão e guitarra
        dificuldadeexibiçõescontribuições
        1 versão de Tab de baixoexibiçõescontribuições
        1 versão de Guitar Proformatodownloadscontribuição
        fecharplay/pause subir/descer velocidade
        fechar
        OK