Enviar cifraEntrar

Querendo Te Amar

Jorge e Mateus

Cifra: Principal
exibições 802.992
Tom: A
1º Parte do solo

      A             B          D          Dm             A
E|---------------------------------------------------------------
B|---------------------------------------------------------------
G|-6-6-6-6-6-6-6-6/4-4-4-4-4-4-4-4/2-2-2-4/5-4-2/----------------
D|-----------------------------------------------3-5-3-2---------
A|---------------------------------------------------------------
E|---------------------------------------------------------------


2º Parte do solo

       A             B            D         Dm          A
E|---------------------------------------------------------------
B|---------------------------------------------------------------
G|-6-6-6-6-6-6-6-6/4-4-4-4-4-4-4-4/2-2-2-4/5-4-2/----------------
D|-----------------------------------------------3-5-3-2---------
A|---------------------------------------------------------------
E|---------------------------------------------------------------


A                 B
Vê se larga de besteira
                D
Tô aqui dando bobeira
   Dm        A
Querendo te amar
                         B
E já faz tempo que eu te quero
                           D
Há tanto tempo que eu te espero
      Dm                  A
Vê se pára pra pensar
                       B
Tô com saudade do teu cheiro
                    D
E desse seu cabelo preto
         Dm          A
Se espalhando sobre mim
                  B
Sua boca pedindo beijo
                   D
E aumentando meu desejo
      Dm            F#m
Não demora, vem pra mim
        B
Quando você chegar
        D              E
Vai se perder no meu olhar

A                     E               F#m
Eu sei de tudo que se passa nessa sua vida
                     D                       A
Eu sei que assim como eu você não está feliz
                             E                 F#m
Eu sei que às vezes pensa em mim quando está sozinha
                       D                  F#m
E isso prova que esse amor tá criando raiz
                     B7                     D
Em todo caso perde o medo de curtir essa paixão
Bm              D        E                A
Que entra pela porta da frente do meu coração

(intro)

 D                         E                D Dm A E A
Que entra pela porta da frente do meu coração
  • 1
  • 2
  • 3
  • 4
  • 5
  • 6
  • 7
  • 8
  • 9
  • 10
  • 11
  • 12

    0 comentários

      mostrar mais comentários

      Conseguiu tocar?

      46tocaram0ainda não

      Grave um vídeo tocando Querendo Te Amar e mande pra gente!

      00:00 / 00:00
      outros vídeos desta música
      repetirqualidadeautomática
      • automática
      Outro vídeos desta música
        00:00 / 00:00
        automática
        • automática
        fecharplay/pause subir/descer velocidade
          acordes
          fechar
          OK
          Feedback