Cifra Club

Se O Amor Tiver Lugar

Jorge e Mateus

Cifra: Principal
exibições 297.185
Tom: D
Intro: D  Em7(9)  Bm  G

[Primeira Parte]

Parte 1
         D      Em7(9)       Bm      G
E|---0-2-2---2---2---2---0-2-2---2---3---3--|
B|-3-------3---3---3---3-------3---3---3----|
G|------------------------------------------|
D|-------0-------2--------------------------|
A|---------------------------2--------------|
E|-----------------------------------3------|

Parte 2
         D      Em7(9)       Bm      G
E|---0-2-2---2---2---2---0-2-2---2---2---3--|
B|-3-------3---3---3---3-------3---3---3----|
G|------------------------------------------|
D|-------0-------2--------------------------|
A|---------------------------2--------------|
E|-----------------------------------3------|

Parte 3
   D                Bm7   G
E|-2---0---3---2----------0-----------------|
B|---3---3---3---3--3-2-------3-------------|
G|----------------------2---0---------------|
D|-0----------------------------------------|
A|------------------2-----------------------|
E|------------------------3-----------------|

[Primeira Parte]

D                      Em7(9)
  Esse amor bateu de frente
                       Bm
Não sai mais da minha mente
                  G
Como faz pra segurar
                    D
Já to louco pra beijar
 Bm7         G
Aaah, aaah, aaah, aaah

[Pré-refrão]

                        Bm
E a areia branca virou nossa cama
                      G
Descompasso no vai e vem das ondas
                  D
Em janeiro, você vem

Fevereiro, você vai
     A
Mas se quiser pode ficar 

Uma vida inteira

[Pré-refrão – repetição]

Parte 1
   Bm
E|------------------------------------------|
B|---3-----3----3-----3---------------------|
G|-----4----------4-------------------------|
D|-------4----------4-----------------------|
A|-2----------2-----------------------------|
E|------------------------------------------|

Parte 2
   G
E|------------------------------------------|
B|---3-----3----3-----3---------------------|
G|-----0----------0-------------------------|
D|-------0----------0-----------------------|
A|------------------------------------------|
E|-3----------3-----------------------------|

Parte 3
   D
E|------------------------------------------|
B|---3-----3----3-----3---------------------|
G|-----2----------2-------------------------|
D|-------4----------4-----------------------|
A|-5----------5-----------------------------|
E|------------------------------------------|

Parte 4
   A
E|------------------------------------------|
B|---2-----2--------------------------------|
G|-----2------------------------------------|
D|-------2----------------------------------|
A|-2----------------------------------------|
E|------------------------------------------|

[Refrão]

             D
Se o amor tiver paixão
             A
Se o amor tiver lugar
         Em
Fica um pouco mais
         G
Fica um pouco mais

             D
Se o amor tiver paixão
             A
Se o amor tiver lugar
         Em
Fica um pouco mais
         G
Fica um pouco mais

  D
Ôuô (ôuô) ôuô
  A
Ôuô (ôuô) ôuô
         Em
Fica um pouco mais
       G
Só um pouco mais

[Pré-refrão]

                        Bm
E a areia branca virou nossa cama

Descompasso no vai e vem das ondas
                  D
Em janeiro, você vem

Fevereiro, você vai
     A
Mas se quiser pode ficar 

Uma vida inteira

[Refrão]

             D
Se o amor tiver paixão
             A
Se o amor tiver lugar
         Em
Fica um pouco mais
         G
Fica um pouco mais

             D
Se o amor tiver paixão
             A
Se o amor tiver lugar
         Em
Fica um pouco mais
         G
Fica um pouco mais

  D
Ôuô (ôuô) ôuô
  A
Ôuô (ôuô) ôuô
         Em
Fica um pouco mais
       G
Só um pouco mais
Acordes para:
    Colaboração e revisão:
    • Leandro Sandim
    • Gabriel Duarte
    • deivid s

    0 comentários

      mostrar mais comentários

      Conseguiu tocar?

      18tocaram1ainda não

      Grave um vídeo tocando Se O Amor Tiver Lugar e mande pra gente!

      00:00 / 00:00
      outros vídeos desta música
      repetirqualidadeautomática
      Outro vídeos desta música
        00:00 / 00:00
        automática
        Capítulos
        • Tocando a música
        • Apresentação / Equipamentos
        • Acordes da Introdução e Primeira Parte
        • Tocando Introdução e Primeira Parte
        • Tocando Primeira Parte (lento)
        • Ensinando Primeira Parte - Parte 1 de 3
        • Ensinando Primeira Parte - Parte 2 de 3
        • Ensinando Primeira Parte - Parte 3 de 3
        • Acordes Pré-Refrão
        • Tocando Pré-Refrão
        • Ritmo do Pré-Refrão
        • Acordes Refrão
        • Tocando Refrão
        • Ritmo do Refrão
        • Acordes Repetição (Pré-Refrão)
        • Tocando Repetição (Pré-Refrão)
        • Dedilhado Pré-Refrão (lento)
        • Dedilhado Pré-Refrão - Parte 1 de 4
        • Dedilhado Pré-Refrão - Parte 2 de 4
        • Dedilhado Pré-Refrão - Parte 3 de 4
        • Dedilhado Pré-Refrão - Parte 4 de 4
        • Encerramento
        OK