Cifra Club

Tem Nada a Ver / Te Cuida Coração (Pot-Pourri)

Jorge e Mateus

Cifra: Principal (violão e guitarra)
exibições 77.195
Tom: E
Intro: 

E|------------------------------------9--7--5----------|
B|-------------9-10--12--9---13-9----10--9--7-----7/9--|
G|------8-9-11-----------------------------------------|
D|---11------------------------------------------------|
A|-----------------------------------------------------|
E|-----------------------------------------------------|

E|-12----12------------------------------------------12---11---9---7----|
B|----9---------------9---------------9-------12------------------------|
G|----------------9h11---11-------9h11--11b9-------13----11--11---9-----|
D|------------9h11------------9h11--------------------------------------|
A|----------------------------------------------------------------------|
E|----------------------------------------------------------------------|

Acompanhamento do solo: E  G#7  A  E  F#7  B7

          E
Alguém me disse que você falou 
         B9
Que acha graça e tem pena de mim 
           A                                 B9
Que não me ama que o nosso caso já chegou ao fim  (lick 1)
       E
Ao telefone não atende mais 
          B9
Que pra você agora tanto faz 
        A
Se é verdade que você não quer 
         B9
Responda se puder 
           C#m              G#7
Quem é que liga no meio da noite 
               C#m
Diz que está sozinha 
                    E7                    A
Quem é que nos meus braços fala que é só minha 
              B7                 E  B7
E chora de emoção na hora do prazer 
          C#m                 G#7
Porque será que você não assume 
                C#m
Que eu sou seu homem 
               E7                   A
Porque o tempo todo fala no meu nome 
               B7                   E  E7
Confessa que você não sabe me esquecer 
               A
Tem nada a ver 
              B7     G#7         C#m
Você é quem está fugindo da verdade 
               E7              A
Parece que tem medo da felicidade 
                 B7                    E  E7
Você diz que não,   teu corpo diz que sim 
               A               B7
Tem nada a ver,  a boca que me beija 
      G#7        C#m
A mão que me apedreja 
                  E7                A
Se deita em minha cama depois me difama 
                   B7                    E  B7
Diz que não me quer   mas vive atrás de mim

- Repete tudo desde a introdução (inclusive o solo).

( E  E4 )

Riff 1:             Riff 2:
E|-----------|     E|----------------|
B|---3h5-5h4-|     B|---3h5-5h3h4h2--|
G|-3---------|     G|-3--------------|
D|-----------|     D|----------------|
A|-----------|     A|----------------|
E|-----------|     E|----------------|

E                   (Riff 1)
Já cansei de avisar
B9              (Riff 1)
Pro meu coração
A9                   (Riff 1)
Pra ele tomar cuidado
E              (Riff 2)
Com essa paixão
E                     (Riff 1)
O amor quando é demais
B9               (Riff 1)
É um campo minado
A9                  (Riff 1)
Se explodir um adeus
E                   (Riff 2)
Coração sai machucado

(parte 2)
   G#7               C#m
O amor é bonito, é gostoso
          G#7
Mas é perigoso
              C#m
Tem que saber amar
 F#7                 B
Ficar sem amor não consigo
               F#7
Sei que é um perigo
            B
Posso me machucar
A9            B9
Vai com calma coração
 C#m               A9
Se cuida com essa paixão

E|-------------|
B|-------------|
G|--4----------|
D|----3-2------|
A|--------3-2--|
E|-------------|

  E
O amor é lindo e gostoso
         B7
Mas é perigoso
            E
Te cuida coração       (2x)

Coro:

              B
Coração apaixonado
          A9
Só quer amor
                E
Não tem medo de nada
                 E
Não sabe o que é certo
                   B7
Não sabe o que é errado
Só quer amor
              E
Coração apaixonado

( E  F#m  G )

(Repete Parte 2)

(Coro)

( A9  G#m  F#m  E9  F#m  G#m  A9  G#m  F#m  E )
Acordes para:
    Colaboração e revisão:
    • Sérgio Souza

    0 comentários

    mostrar mais comentários

    Conseguiu tocar?

    9 tocaram 0 ainda não

    Grave um vídeo tocando Tem Nada a Ver / Te Cuida Coração (Pot-Pourri) e mande pra gente!

    00:00 / 00:00
    outros vídeos desta música
    repetir qualidade Automático
    Outros vídeos desta música
    00:00 / 00:00
    Automático
    OK