Enviar cifraEntrar

Homem Aranha

Jorge Vercillo

Cifra: Principal
exibições 497.151
Tom: C
Intro: F7M  Dm7 D7(9)  C7M  A4/7/9 A7(9)
       F7M  Dm7  C7M  Em7(9)  Bb7(13)  A7(b13)
       F7M  Dm7(9)  Bb7(9/13)


E|--------------------------------------------
B|--------------------------------------------
G|-5-5-7--5-5-7--2-----5-5-7-0--5-5-----------
D|----------------2------------------2-3------
A|----------------------------------3---------
E|--------------------------------------------


E|--------------------------------------
B|---------------3-2--------------------
G|-5-5-7--5-5-7--4-4--------------------
D|---------------5-5---7-7-5-5----------
A|-----------------------------7-7------
E|---------------5-5--------------------


E|-------------------------------------------
B|-------------------------------------------
G|-5-5-7--5-5-7--2----5-5-7-0--5-5-----------
D|----------------2-----------------2-3------
A|---------------------------------3---------
E|-------------------------------------------


E|---------------------------------
B|---------------------------------
G|-5-5-7--5-5-7--------------------
D|----------------7-7-5-5----------
A|------------------------7-7------
E|---------------------------------


E|-------------------------------------
B|-------------------------------------
G|-5-5-7--5-5-7--2-----5-5-7-0---------
D|----------------2--------------------
A|-------------------------------------
E|-------------------------------------


     Am
Eu adoro andar no abismo
      G
Numa noite viril de perseguição
    F
Saltando entre os edifícios
 G#7M   A#4/7/9
Vi   você
      Am
Em poder de um fugitivo
        G                           F
Que cercado pela polícia, te fez refém lá nos precipícios
        Em7(9)            Bb7M
Foi paixão    à primeira vista
       Am
Me joguei de onde o céu arranha
       G
Te salvando com a minha teia
             F
Prazer, me chamam de Homem-aranha
 G#7M    A#4/7/9
Seu   herói

 D7       E7M
Hoje o herói aguenta o peso
 C7             D7M  D#7
Das compras do mês
 D7    E7M                 C7        D7M  D#7
No telhado, ajeitando a antena da tevê
F7M  E7M                   Eb7M       A4/7/9
Acordado a noite inteira pra ninar bebê

Refrão:

             F7M
Chega de bandido pra prender
            Dm7
De bala perdida pra deter
               C7M
Eu tenho uma ideia:
               A4/7/9  A7(9)
Você na minha teia
            F7M
Chega de assalto pra impedir
            Dm7
Seja em Brasília ou aqui
                   C7M  Em7(9)
Eu tive a grande ideia:
               Bb7(13) A7(b13)
Você na minha teia
           F7M
Hoje eu estou nas suas mãos
             Dm7
Nessa sua ingênua sedução
                 C7M
Que me pegou na veia
              A4/7/9 A7(9)
Eu to na tua teia

F7M  Dm7  Bb7(9/13)

"REPETE TUDO"

Base do solo:  F7M  Dm7  C7M  Em7(9)  Bb7(13)  A7(b13)

"REPETE O REFRÃO"
  • 1
  • 2
  • 3
  • 4
  • 5
  • 6
  • 7
  • 8
  • 9
  • 10
  • 11
  • 12
    Acordes para:

      0 comentários

        mostrar mais comentários

        Conseguiu tocar?

        21tocaram1ainda não

        Grave um vídeo tocando Homem Aranha e mande pra gente!

        00:00 / 00:00
        outros vídeos desta música
        repetirqualidadeautomática
        • automática
        Outro vídeos desta música
          00:00 / 00:00
          automática
          • automática
          1 versão de Tab de baixoexibiçõescontribuições
          fecharplay/pause subir/descer velocidade
            acordes
            fechar
            OK
            Feedback