Cifra Club

Aprenda

Cant Let You Stay

Joseph Arthur

Cifra: Principal (violão e guitarra)
tom: G
    G
E|---------------------------------|
B|-----0--1--3---------------------|
G|-----0--0--0---------------------|
D|--0------------------------------|
A|---------------------------------|
E|3--------------------------------|
    G                    C
E|---------------------------------|
B|-----0--1--3---1-1------------1--|
G|-----0--0--0---0-0----------0----|
D|--0----------------------2-------|
A|----------------------3----------|
E|3--------------------------------|
   Am
E|---------------------------------|
B|-----------------0h2-------------|
G|------0h2--2-------------2-------|
D|---2--0h2----2--------2----------|
A|0--------------------------------|
E|---------------------------------|
   Em
E|---------------------------------|
B|---------------------------------|
G|------2--0--2--------------------|
D|---2--2--2--2--------------------|
A|---------------------------------|
E|0--------------------------------|

Refrão:
    C          D                 Em
E|-------------------0h2------------------0-------------0------------------0----------------0-----|
B|-------2---------3-----3--------------0---0---------0----0-------------0----0-----------0-------|
G|-----0---0-----2---------2----------0-------------0--------0---------0--------0-------0---------|
D|---2---------0-------------------------------0h2----------------------------------0h2-----------|
A|-3----------------------------------------------------------------------------------------------|
E|-------------------------------0---------------------------------0------------------------------|
Composição de Joseph Arthur
Colaboração e revisão:
  • Agnaldo
46 exibições
    • ½ Tom
    • A
    • Bb
    • B
    • C
    • Db
    • D
    • Eb
    • E
    • F
    • F#
    • G
    • Ab
  • Adicionar à lista

    0 comentários

    Ver todos os comentários

    Conseguiu tocar?

    0 Tocaram 0 Ainda não

    Grave um vídeo tocando Cant Let You Stay e nos envie!

    00:00 / 00:00
    Outros vídeos desta música
    Repetir Qualidade Automático
    Outros vídeos desta música
    00:00 / 00:00
    Automático

    Cifra Club Pro

    Aproveite o Cifra Club com benefícios exclusivos e sem anúncios
    Cifra Club Pro
    Aproveite o Cifra Club com benefícios exclusivos e sem anúncios
    OK