Cifra Club

Tell Me What We Are Gonna do Now

Joss Stone

Cifra: Principal
exibições 18.716
Tom: C
Intro Riff 

        C      Em      Am   Am   
e|------0------0-------0---0--------| 
B|------1------0-------1---1--------| 
G|------0------0-------0---0--------| 
D|----2------2------2-----2---------| 
A|---3------2------0-----0----------| 
E|----------------------------------| 


Verse 1 & 2/Chorus Riff/Rap Verse 

        C        Em   Am     
e|----------------------------------| 
B|-------1------0------1------------| 
G|------0------0------2-------------| 
D|-----2------2------2--------------| 
A|----3------2------0---------------| 
E|----------------------------------| 


Bridge Riff 

     Dm       Am    Dm   G   
e|------1------0----1-----3---------| 
B|-----3------1----3----------------| 
G|----2------2----2-----------------| 
D|---0------2----0-------0----------| 
A|---------0------------2-----------| 
E|---------------------3------------| 


Intro: 
Yes, we have arrived, Joss Stone, Uh huh, Common 
It's for the world (world) world (world), Uh 

Verse 1: 
C 
 Em                       Am   
You don't have to make your mind up  
                     C      Em
I just wanna take my time with you (yeah) 
   Am 
If that's alright (it's alright it's alright)  
 C     Em           Am 
Oh forgive me if I get to shy but  
                        C    Em 
maybe you're the reason why  
            Am 
I'm feelin' butterflies (I feel it too) 

Bridge: 
 Dm                            Am 
Somethin' bout the look in your eyes 
 Dm                          G 
Oooh it just makes me feel so right  

 C              Em           Am 
Well you're my boy, you're my joy, you're my dream  
 C             Em          Am 
I'm for ya, I adore your everything that I need  
 C     Em     Am 
I love how you love me  
 C 
If I'm made for you  
 Em
you're made for me  
 Am 
It's too good to be  
                        
So tell me what we're gonna do now  

Interlude: 
 C  Em  Am  C  Em  Am

Verse 2: 
C 
 Em                   Am 
Funny how my world keeps spinnin'  
                        C
sometimes you can be so silly  
 Em                Am                 C 
You know just how to make me laugh (yeah) 
 Em             Am 
You're skin is so lovely  
         C 
When you touch me  
 Em                  Am 
I know that you got my back (sure do, yes I do) 

Bridge: 
Dm            Am              Dm 
I feel so safe when you hold me  
          G 
It's like you know me  

{Chorus} 

Verse 3: 
F 
 Em      Dm 
Oh right now  
         F           Em     Dm 
See baby I love how you make me smile  
      F          Em    Dm 
Don't leave, please stay awhile  
      F      Em     Dm 
Let's make this happen, I don't care how  

Rap Verse: 
Right now let's stay in the present  
Can't worry bout tomorrow cause today is a blessin'  
The world in a state of aggression  
I find calm in you  
I see my mom in you  
It's like a feelin' in a n***** stomach  
when you want it so bad  
If you keep keepin' it fresh  
it ain't gonna go bad  
I been through the valley of love  
Rolled the shores of Cali  
just to find peace of mind  
Lookin' to the sky  
askin' for at least a sign  
Beautiful you came at such a decent time  
when we combine  
it's like good food and wine  
Flavorful yet refined  
you remind me of the divine  
So easy  
Love can be lost and then found, like Stevie  
I just love havin' you around  
you wearin' a gown  
I'm wearin' a crown  
pound for pound  
we the freshest couple in town  

{Chorus} 

Outro: 

e|---/12--10-8----------------------| 
B|----------------------------------| 
G|----------------------------------| 
D|----------------------------------| 
A|----------------------------------| 
E|----------------------------------|
Acordes para:
    Composição: Joss Stone / Lonnie Lynn / Tony ReyesColaboração e revisão:
    • João Silva
    • Jorge Umemaru

    0 comentários

      mostrar mais comentários

      Conseguiu tocar?

      1tocaram0ainda não

      Grave um vídeo tocando Tell Me What We Are Gonna do Now e mande pra gente!

      00:00 / 00:00
      outros vídeos desta música
      repetirqualidadeautomática
      Outro vídeos desta música
        00:00 / 00:00
        automática
        OK