Segunda Divisão

Jota Lennon

tom: Eb (forma dos acordes no tom de C ) Afinação: E A D G B E Capotraste na 3ª casa
Refrão:
C              G7
Sai da minha vida
            Am                     F
Por muito tempo você foi a minha preferida
      C                G7
Dá o fora, cê tá se achando
Am                F               F
A segunda divisão tá te esperando, tá te esperando
Solo:
    C        G          Am               F
E|---------------------------------------------------------|
B|-1-1-0-1-1/3-1---------1-1---1/3-1----1-1---3/6-5/1------|
G|---------------2-0---2-----2-------2------2--------------|
D|---------------------------------------------------------|
A|---------------------------------------------------------|
E|---------------------------------------------------------|
    C        G          Am               F
E|---------------------------------------------------------|
B|-1-1-0-1-1/3-1---------1-1---1/3-1----1/6-6-6-6-5-3-3/1-1|
G|---------------2-0---2-----2-------2---------------------|
D|---------------------------------------------------------|
A|---------------------------------------------------------|
E|---------------------------------------------------------|

C          G7           Am          F           C
Pedi pra você ficar esperta porque ia me perder
           G7               Am               F
Pedi pra você me dar carinho, não me deu carinho, será por quê?
C              G7                Am                 F              C
Falava pras amigas que eu era o teu cachorrinho e comia na tua mão
                  G7                    Am          F                G7
Você não tá com nada, totalmente rebaixada e com você não tenho compaixão

Refrão:
C              G7
Sai da minha vida
            Am                     F
Por muito tempo você foi a minha preferida
      C                G7
Dá o fora, cê tá se achando
Am                F
A segunda divisão tá te esperando

C              G7
Sai da minha vida
            Am                     F
Por muito tempo você foi a minha preferida
      C                G7
Dá o fora, cê tá se achando
Am                F
A segunda divisão tá te esperando
Solo:
    C        G          Am               F
E|---------------------------------------------------------|
B|-1-1-0-1-1/3-1---------1-1---1/3-1----1-1---3/6-5/1------|
G|---------------2-0---2-----2-------2------2--------------|
D|---------------------------------------------------------|
A|---------------------------------------------------------|
E|---------------------------------------------------------|
    C        G          Am               F
E|---------------------------------------------------------|
B|-1-1-0-1-1/3-1---------1-1---1/3-1----1/6-6-6-6-5-3-3/1-1|
G|---------------2-0---2-----2-------2---------------------|
D|---------------------------------------------------------|
A|---------------------------------------------------------|
E|---------------------------------------------------------|

C          G7           Am          F           C
Pedi pra você ficar esperta porque ia me perder
           G7               Am               F
Pedi pra você me dar carinho, não me deu carinho, será por quê?
C              G7                Am                 F              C
Falava pras amigas que eu era o teu cachorrinho e comia na tua mão
                  G7                    Am          F                G7
Você não tá com nada, totalmente rebaixada e com você não tenho compaixão

Refrão:
C              G7
Sai sai da minha vida
            Am                     F
Por muito tempo você foi a minha preferida
      C                G7
Dá o fora, cê tá se achando
Am                F
A segunda divisão tá te esperando

C              G7
Sai da minha vida
            Am                     F
Por muito tempo você foi a minha preferida
      C                G7
Dá o fora, cê tá se achando
Am                F
A segunda divisão tá te esperando

C              G7
Sai da minha vida
            Am                     F
Por muito tempo você foi a minha preferida
      C                G7
Dá o fora, cê tá se achando
Am                F                F
A segunda divisão tá te esperando tá te esperando
C
Sai
Página 1 / 1

Letras e título
Acordes e artista

resetar configurações
OK