A Voz do Coração

Jota Quest

Composição de: Márcio Buzelin / Marco Túlio Lara / Paulinho Fonseca / PJ / Rael / Rogério Flausino
tom: Bb
[Intro]  Bb  F  Gm  F

     Bb
E|-------------------------------------|
B|-------------------------------------|
G|-----------3-------------2h3p2-------|
D|-----------3--------3h5----------3---|
A|--1---1------------------------------|
E|-------------------------------------|

      F
E|------------------------------------|
B|------------------------------------|
G|-----------1------------------------|
D|-----------2-----------3------------|
A|------------------3/5---------------|
E|--1---1----------------------1--2---|

     Gm7
E|----------------------------------|
B|----------------------------------|
G|----------3-----------------------|
D|----------3-----------------------|
A|----------------0h1---3h5p3---1---|
E|---3--3---------------------------|

      F
E|------------------------------------|
B|------------------------------------|
G|-----------1------------------------|
D|-----------2------0--1--------------|
A|-------------------------3----------|
E|--1---1----------------------1--3---|

[Primeira Parte]      

Bb
Ela vem pra te dizer
                F
Que apesar de toda pressa
              Gm
Que apesar de tanta meta
               F
Ainda há tempo pra viver

Bb
Ela vem pra decidir
               F
Que apesar de qualquer mágoa
               Gm
Que apesar de tanta falta
                F            
Ainda há tempo pra sorrir

   F
E|-------------------------------------------|
B|-------------------------------------------|
G|-------------------------------------------|
D|----3----5----7----3-------------------|---|
A|-------------------------------------------|
E|-------------------------------------------|

[Refrão]

Eb           F         Dm7 Eb
  E ouvir a voz do coração
Eb        F              Dm7
  Não ser só mais um na multidão
Eb                       F   Dm7 Eb
  Lá onde o sol revela a alma
Dm7                    Eb
    Lá onde mora a nossa calma
Eb       F            Bb
  Ela é sempre a solução

( Bb  F  Gm  F )

Ela é sempre a solução

[Segunda Parte]

Bb
 Ela vem pra te lembrar
                F
Que apesar de tanta conta
             Gm
Que apesar de tudo contra
                F
Ainda há tempo pra sonhar

Bb
Ela vem pra decidir
               F
Que apesar dessa neblina
              Gm
De tanto sentimento cinza
                  F                
Que a gente pode colorir e resistir

[Refrão]

Eb           F         Dm7 Eb
  E ouvir a voz do coração
Eb        F              Dm7
  Não ser só mais um na multidão
Eb                       F
  Lá onde o sol revela a alma
Dm7                    Eb
    Lá onde mora a nossa calma
Eb       F            Gm
  Ela é sempre a solução

Eb           F         Dm7 Eb
   Ouvir a voz do coração
Eb        F              Dm7
  Não ser só mais um na multidão
Eb                       F
  Lá onde o sol revela a alma
Dm7                    Eb
    Lá onde mora a nossa calma
Eb       F            Bb
  Ela é sempre a solução

[Terceira Parte]

       Bb
Ainda bem que vou na direção
      F
Que apontam as batidas do meu coração
Gm
Andei distraído, não notei, não dei ouvidos
       F
Não colaborei comigo, trabalhei sob pressão

   Bb
Mas,  clareou

Tô tranquilão ouvindo Bob
F
  Stir it up, há uma voz aí que move
Gm                                F
   Ela te guiará, que te dará sentido
                                   Eb
Não existe não dá, só existe eu consigo

[Refrão]

Eb           F         Dm7 Eb
  E ouvir a voz do coração
Eb        F              Dm7
  Não ser só mais um na multidão
Eb                       F
  Lá onde o sol revela a alma
Dm7                    Eb
    Lá onde mora a nossa calma
Eb       F            Gm  
  Ela é sempre a solução

Eb           F         Dm7 Eb
  E ouvir a voz do coração
Eb        F              Dm7
  Não ser só mais um na multidão
Eb                       F
  Lá onde o sol revela a alma
Dm7                    Eb
    Lá onde mora a nossa calma
Eb       F            Bb
  Ela é sempre a solução
Página 1 / 1

Letras e título
Acordes e artista

resetar configurações
OK