Cifra Club

Aprenda

Amor Maior

Jota Quest

Tab de baixo: Principal
                                            
G|-----------------------------------------------------------------|
D|*----------------------------------------------------------------|
A|*------------0-----------2----4----4----2----0-------------------|
E|---5----0---------4------------------------------1----1----4----5|(3x)

(refrão)                                    
G|-----------------------------------------------------------------------------------------|
D|-----------------------------------------------------------------------------------------|
A|-----------------------------------------------0-4----4----4----4----0-------------------|
E|-7----0----0----0----0----3-4----4----4----4---------------------------2---2-4-5-5-4-2-0|(2x)

G|-----------------------------------------------------------------|
D|*----------------------------------------------------------------|
A|*------------0-----------2----4----4----2----0-------------------|
E|---5----0---------4------------------------------1----1----4----5|(3x)

(refrão)                                     
G|-----------------------------------------------------------------------------------------|
D|-----------------------------------------------------------------------------------------|
A|-----------------------------------------------0-4----4----4----4----0-------------------|
E|--7----0----0----0----0----3-4----4----4----4---------------------------2---2-4-5-5-4-2-0|(2x)
Composição de Rogério Flausino
Colaboração e revisão:
  • Nikson Oliveira
33.441 exibições

0 comentários

Ver todos os comentários

Conseguiu tocar?

1 Tocaram 0 Ainda não

Grave um vídeo tocando Amor Maior e nos envie!

00:00 / 00:00
Outros vídeos desta música
Repetir Qualidade Automático
Outros vídeos desta música
00:00 / 00:00
Automático

Cifra Club Pro

Aproveite o Cifra Club com benefícios exclusivos e sem anúncios
Cifra Club Pro
Aproveite o Cifra Club com benefícios exclusivos e sem anúncios
OK