Cifra Club

Encontrar Alguém

Jota Quest

Tab de baixo: Principal
exibições 38.814
Intro/Refrão:

Eu estou fazendo ela dessa maneira:


|------------------------------------------|
|-----------3h4----------------------------|
|-5----5-4--------------------3---4---5----| (2x)
|----5----------2--2-0-0-2--2---2---2------|




   D        C#m   F#m                     F              E4
G|--------------------------------------|-----------------------------------|
D|--------------------4-4-------2-----2-|-----------------------------------|
A|-5-----5--4b5b4-----------2h4---2h4---|-----------------------------------|
E|-----5-----------2------2-------------|-1---1---1--1---0--0--0--0--1/10\1-|

Verso:

O verso eu faço dessa maneira:


|------------------------------------|
|------------------------------------|
|-----------0-2-2-2---2-2-2-4-2------| (7x)
|-2-2-0-2-2---------2-----------5----|

 
(Pequena variação na quarta vez no Bm: "que existe em todo sonho bom...")

|-2-2h4----------------------|
|-------2-2h4----------------|
|-------------2-2h4-2--------|
|---------------------5-2----|




  F#m           E
G|----------------------|
D|----------------------|
A|----------------------|
E|-2---2---2-2--0-------|

Música:

Introdução: [Refrão]

[Refrão]
Encontrar alguém
Encontrar alguém
Encontrar alguém, que me dê amor

[Verso]
Da esquina eu vi o brilho dos teu olhos
Tua vontade de morrer de rir
Teus cabelos tentaram esconder
Mas vi tua boca feliz
Tua alma leve como as fadas
Que bailavam no teu peito
Tua pele clara como a paz
Que existe em todo sonho bom
Quis matar os seus desejos
Ver a cor dos teus segredos
E contar pra todo mundo
O beijo que eu nunca esqueci

(Repete Tudo)

0 comentários

    mostrar mais comentários

    Conseguiu tocar?

    0tocaram0ainda não

    Grave um vídeo tocando Encontrar Alguém e mande pra gente!

    00:00 / 00:00
    outros vídeos desta música
    repetirqualidadeautomática
    Outro vídeos desta música
      00:00 / 00:00
      automática
      OK