Notificações Amigos pendentes

      Jota Quest

      Na Moral

      48.954 exibições
      G|-------------------------------------------------------------------------------|
      D|-------------------------5-5-----------------------7-7------5-------5-5--------|
      A|---------------------5-7-----5-7-----------------------0-7----5-7-------7------|
      E|--0----3-4-5-----5-7-------------0--0----3-4-5----------------------------0----|
      
      G|---------------------------------------------7-----8-----9----------------
      D|--------------------------------------7-----------------------------------
      A|----------------5--6----7-----------------5------6----7----7--------------
      E|--0---7--7--5---------------7--7--5----------------------------7---7--5---
      
       -------------------------------------------------|
       ---------------------------7-------5-5-----------|
       ----5---6----7------------------5-7-----7-5------|
       ------------------7--7--5-------------------7----|
      
      G|----------------------------------------------------------------------------|
      D|--------------------------5-5-----------------------7-7----5-----5-5--------|
      A|---------------------5-7-------5-7---------------------0-7---5-7-----7------|
      E|--0---3-4-5------5-7------------------0---3-4-5-----------------------------|
      
      
      G|-----------------------------------------------7---8----9--|
      D|-----------------------------------------------------------|
      A|-------------------5--6-----7---------------5----6---7-----|
      E|--0----7---7--5------------------7--7--5-------------------|
      
      
      G|-------------------------------------------------------|
      D|-----------------------------------------------5-5-----|
      A|---7--------------5--6-----7---------------5-7----7-5--|
      E|-------7--7--5-----------------7--7--5-----------------|
      
      
      G|------------------------------------|
      D|-----------2-------------2-----0-2--|
      A|--3----2-3---3---2---2-5------------|
      E|------------------------------------|
      
      G|---------------0-2-----------------------------------------------------------|
      D|------------------------------------------------2-------------------2--0--2--|
      A|--0----2-3-----------------------3-5---3----2-3----3---2-----2---5-----------|
      E|---------------------0----2-3------------------------------------------------|
      
      G|--------------0-2------------------------------------------------------
      D|--------------------------------------------------------------5-5------
      A|--0----2-3---------0---0--5----6--------------------------5-7-----5-7--
      E|---------------------------0----------0----3--4--5----5-7--------------
      
       ----------------------------------------------|
       ---------------7-7----5----5-5----------------|
       -------------------0-7--5-7---7---------------|
       -0----3-4-5-----------------------------------|
      
      G|---------------------------------------------------------------------------
      D|-------------------------------------5-5---------------------------5-5-----
      A|---------------------------------5-7----7----------------------5-7-----5-7-
      E|--0--0-0--0--0----0--0-0--0--0-----------------0---3-4-5---5-7-------------
      
       -----------------------------------------------|
       -------------7-7----5-----5-5------------------|
       -----------------0-7--5-7-----7----------------|
       --0---3-4-5------------------------------------|
      
      G|------------------------------------------------------------------------7----8---9-|
      D|------------5-7----------7--------------------------5-7--------7-------------------|
      A|--7--5--7-------------------------5--6-----7--5--7-------------------5----6---7----|
      E|------------------5-7--------5---------------------------7--5-----5----------------|
      
      
      G|-----------------------------------------------------------------------------
      D|-7------------5-5---------------------------------------5-5------------------
      A|----------5-7-----7---------------------------------5-7-----5-7--------------
      E|----5---------------------0--0--0----3-4-5------5-7--------------0--0--3-4-5-
      
       --------------------------------------------|
       --7-7-----5------5-5------------------------|
       --------7----5-7-----7----------------------|
       ------5-------------------------------------|
      
      
      Contribuição: Geraldo Magela Pereira Júnior(travormckanzie2@bol.com.br)
      Correção: Renan Bandeira (slap_Bass4@hotmail.com)

      Comentários 2

      140 .
      • Raul Raul: Em 04/03/2016 01:02

        Gostaria muito de uma video aula dessa musica.

      • Will Will: Em 03/09/2014 16:48

        Cadê a vídeo-aula de CONTRABAIXO desta música?!

      140 cancelar

      conseguiu tocar?

      vagner rogerio trinca11.450 visualizações
        ver covers de outras músicas »
        0:00 / 0:00

        Capítulos

          1 versão de baixo exibições contribuição e correção
          1 versão de Guitar Proformatodownloadscontribuição
          1 versão de partiturasformatodownloadscontribuição
          play/pausefechar subir/descer velocidade
          6ª corda E5ª corda A4ª corda D3ª corda G2ª corda B1ª corda E
            acordes
            publicidade
            fechar
            ok