Cifra Club

Na Moral

Jota Quest

Tab de baixo: Principal
exibições 52.557
Introdução 

Parte 01 de 02

G|----------------------------------------------|
D|----------------------------------------------|
A|----------------------------------------------|
E|-3/-17\---------------------------------------|

Parte 02 de 02 ( tocar 2x )

G|----------------------------------------------|
D|-------------------5-5------------------------|
A|---------------5-7-----x-5h7------------------|
E|-0-3-4-5-x-5-7----------------0--3-4-5--------|

G|----------------------------------------------|
D|-x-7-7--------5--------5-5--------------------|
A|-----------------x-5h7-----7------------------|
E|--------x-3-----------------------------------|

Refrão 01

Na moral, na moral...

Parte 01 de 01 ( tocar 2x )

G|----------------------------------------------|
D|-------------------5-5------------------------|
A|---------------5-7-----x-5h7------------------|
E|-0-3-4-5-x-5-7----------------0--3-4-5--------|

G|----------------------------------------------|
D|-x-7-7--------5--------5-5--------------------|
A|-----------------x-5h7-----7------------------|
E|--------x-3-----------------------------------|

Primeira parte

Vivendo de folia e caos...

Parte 01 de 02

G|----------------------------------7---8-------|
D|---------------------------7------------------|
A|----------x-5-6-7\-----------x-5---6----7-----|
E|-0-7-7--5----------7-7--5------------------7--|

G|-----------------------------7----8-----------|
D|----------------------7-----------------------|
A|-----x-5-6-7\-----------x-5----6----7---------|
E|-7-5----------7-7--5------------------7-7--5--|

Parte 02 de 02

G|-------------------------7----8---------------|
D|------------------7---------------------------|
A|-x-5-6-7\-----------x-5----6----7-------------|
E|-----------7-7--5------------------7-7--5-----|

G|----------------------------------------------|
D|------------------7-------5-5-----------------|
A|-x-5-6-7\-----------x-5h7-----7-5-------------|
E|----------7-7--5------------------7-----------|

Refrão 02

Na moral, na moral...

Parte 01 de 01 ( tocar 2x )

G|----------------------------------------------|
D|-------------------5-5------------------------|
A|---------------5-7-----x-5h7------------------|
E|-0-3-4-5-x-5-7----------------0--3-4-5--------|

G|----------------------------------------------|
D|-x-7-7--------5--------5-5--------------------|
A|-----------------x-5h7-----7------------------|
E|--------x-3-----------------------------------|

Segunda parte

Viver entre o medo e a paz...

Parte 01 de 02

G|----------------------------------7---8-------|
D|----------------------------------------------|
A|----------x-5-6-7\-----------x-5---6----7-----|
E|-0-7-7--5----------7-7---5-----------------7--|

G|----------------------------------------------|
D|--------------------------5-5-----------------|
A|-----x-5-6-7\---------5h7-----7-5-------------|
E|-7-5----------7-7--5--------------------------|

Parte 02 de 02

       T.......................................
G|----------------------------------------------|
D|---------2-------------0h2--------0h2---------|
A|-3---2h3---3-2--5--7-5------------------------|
E|---------------------------0-2-3------0-x-2-3-|

   T.......................................ral...
G|----------------------------------------------|
D|--------------2----------------------5h7------|
A|-3--3h5-3-2h3---3-2-5-7-5--5h7----------------|
E|-------------------------------5-7-8-----x-5-5|

   T..
G|----------------------------------------------|
D|----------------------------------------------|
A|-5-6\-----------------------------------------|
E|----------------------------------------------|

Refrão 03

Na moral, na moral...

Parte 01 de 02 

G|----------------------------------------------|
D|-------------------5-5------------------------|
A|---------------5-7-----x-5h7------------------|
E|-0-3-4-5-x-5-7----------------0--3-4-5--------|

G|----------------------------------------------|
D|-x-7-7--------5--------5-5--------------------|
A|-----------------x-5h7-----7------------------|
E|--------x-3-----------------------------------|

Parte 02 de 02

G|----------------------------------------------|
D|-------------------5-5------------------------|
A|---------------5-7-----x-5h7------------------|
E|-0-3-4-5-x-5-7----------------0--3-4-5--------|

G|----------------------------------------------|
D|-x-7-7--------5--------5-5--------------------|
A|-----------------x-5h7-----7------------------|
E|--------x-3------------------0----------------|

Introdução 02 + solo de Guitarra

Parte 01 de 03

   T..................
G|----------------------------------------------|
D|-------------------------5-5------------------|
A|---------------------5h7-----7----------------|
E|-0-0--0-0---0-0--0-0--------------------------|

Parte 02 de 03 ( Tocar 2x )

G|----------------------------------------------|
D|-------------------5-5------------------------|
A|---------------5-7-----x-5h7------------------|
E|-0-3-4-5-x-5-7----------------0--3-4-5--------|

G|----------------------------------------------|
D|-x-7-7--------5--------5-5--------------------|
A|-----------------x-5h7-----7------------------|
E|--------x-3------------------0----------------|

Parte 03 de 03

   T............
G|----------------------------------------------|
D|---------5-----------5-5----------------------|
A|-x-7-5-7---------5h7-----7--------------------|
E|-----------7-5--------------------------------|

Refrão 04 ( Final )

Na moral, na moral...

Parte 01 de 01 ( tocar 4x + fade out )

G|----------------------------------------------|
D|-----------------------5-5--------------------|
A|-------------------5-7-----x-5h7--------------|
E|-0-0-0-3-4-5-x-5-7----------------0-0--3-4-5--|

G|----------------------------------------------|
D|-x-7-7--------5--------5-5--------------------|
A|-----------------x-5h7-----7------------------|
E|--------x-3-----------------------------------|

0 comentários

    mostrar mais comentários

    Conseguiu tocar?

    0tocaram0ainda não

    Grave um vídeo tocando Na Moral e mande pra gente!

    00:00 / 00:00
    outros vídeos desta música
    repetirqualidadeautomática
    Outro vídeos desta música
      00:00 / 00:00
      automática
      Capítulos
      • Tocando a música
      • Apresentação / Equipamentos
      • Introdução - Parte 1 de 2
      • Introdução - Parte 2 de 2
      • Refrão
      • Dicas Primeira Parte e Refrão 2
      • Primeira Parte - Parte 1 de 2
      • Primeira Parte - Parte 2 de 2
      • Dicas Segunda Parte
      • Segunda Parte - Parte 1 de 2
      • Segunda Parte - Parte 2 de 2
      • Dicas de repetição
      • Introdução 2 - Parte 1 de 3
      • Introdução 2 - Parte 2 de 3
      • Introdução 2 - Parte 3 de 3
      • Refrão 4
      • Encerramento
      OK