Cifra Club

Aprenda

O Sol

Jota Quest

Tab de baixo: Versão 3
Track 1
     E.  S S S S E  S S S E  E     E.  S S S S E  S S S E  E    
G||-----------------------------|------------------------------|
D||-----------------------------|------------------------------|
A||-----------------------------|--7-----7-----7--7-----7------|
E||--5-----5-0-3-5--5-0-3-5--0--|----------5-7------5-7----5/--|
B||-----------------------------|------------------------------|


   E.  S  S S  S  E   S S  S  E  E      E.  S S S S E  S S S E  E   
-------------------------------------|-----------------------------|
-------------------------------------|-----------------------------|
--10-----10------10--10------10------|--5-----5-----5--5-----5-----|
------------8-10--------8-10-----8\--|----------3-5------3-5----3--|
-------------------------------------|-----------------------------|


  E.  S S S S E  S S S E  E     E.  S S S S E  S S S E  E   
-----------------------------|-----------------------------|
-----------------------------|-----------------------------|
-----------------------------|--7-----7-----7--7-----7--9--|
--5-----5-0-3-5--5-0-3-5--0--|----------5-7------5-7-------|
-----------------------------|-----------------------------|


   E.  S  S S  S  E   S S  S  E  E      E.  S S S S E  S S S S S S S  
-------------------------------------|-------------------------------|
-------------------------------------|-------------------------------|
--10-----10------10--10------10------|--5-----5----------------------|
------------8-10--------8-10-----8\--|----------x-x-2--x-x-3-x-x-4---|
-------------------------------------|-------------------------------|


  Q.     S S E  Q.        Q.     S S E  Q.        Q.     S S E  Q.      
-----------------------|-----------------------|-----------------------|
-----------------------|-----------------------|-----------------------|
-----------------------|--7--------7----7------|-----------------------|
--5--------5----5------|-----------------------|--3--------3----3------|
-----------------------|-----------------------|-----------------------|


  Q.     S S E  Q.        Q    S S S E.  Q.        Q.     S S E  Q.      
-----------------------|------------------------|-----------------------|
-----------------------|-----------9-7---7------|-----------------------|
--5--------5----5------|---------7--------------|--7--------7----7------|
-----------------------|--5---------------------|-----------------------|
-----------------------|------------------------|-----------------------|


  Q.     S S E  Q.        E.  S S S S E  S S S S S S S  
-----------------------|-------------------------------|
-----------------------|-------------------------------|
-----------------------|--5-----5----------------------|
--3--------3----3------|----------x-x-2--x-x-3-x-x-4---|
-----------------------|-------------------------------|


    Refrão: E se quiser saber pra onde eu vou...                         
    E.                                           S S S S E  S S S E  E   
|-----------------------------------------------------------------------|
|*----------------------------------------------------------------------|
|-----------------------------------------------------------------------|
|*--5----------------------------------------------5-0-3-5--5-0-3-5--0--|
|-----------------------------------------------------------------------|


  E.  S S S S E  S S S E  E     E.  S S S S E  S S S E  E   
-----------------------------|-----------------------------|
-----------------------------|-----------------------------|
--7-----7-----7--7-----7-----|--5-----5-----5--5-----5-----|
----------5-7------5-7----5--|----------3-5------3-5----3--|
-----------------------------|-----------------------------|


  E.  S S S S E  S S S E  E       E.  S S S S E  S S S E  E   
------------------------------||-----------------------------|
-----------------------------*||-----------------------------|
------------------------------||-----------------------------|
--5-----5-0-3-5--5-0-3-5--3--*||--5-----5-0-3-5--5-0-3-5--0--|
------------------------------||-----------------------------|


  E.  S S S S E  S S S E  E      E.  S  S S  S  E   S S  S  E  E    
-----------------------------|-------------------------------------|
-----------------------------|-------------------------------------|
--7-----7-----7--7-----7--9--|--10-----10------10--10------10------|
----------5-7------5-7-------|------------8-10--------8-10-----8\--|
-----------------------------|-------------------------------------|


  E.  S S S S E  S S S S S S S    Q.     S S E  Q.        Q.     S S E  Q.      
-------------------------------|-----------------------|-----------------------|
-------------------------------|-----------------------|-----------------------|
--5-----5----------------------|-----------------------|--7--------7----7------|
----------x-x-2--x-x-3-x-x-4---|--5--------5----5------|-----------------------|
-------------------------------|-----------------------|-----------------------|


  Q.     S S E  Q.        Q.     S S E  Q.        Q    S S S E  S S S E  E   
-----------------------|-----------------------|----------------------------|
-----------------------|-----------------------|-----------9-7--7-----7--9--|
-----------------------|--5--------5----5------|---------7--------7-9-------|
--3--------3----3------|-----------------------|--5-------------------------|
-----------------------|-----------------------|----------------------------|


  Q      E   E    E   E   S S S S    Q.     S S E  Q.      
-----------------11p--9-----------|-----------------------|
--------11p--9-----------11-9-----|-----------------------|
--7-------------------------------|-----------------------|
------------------------------0-2-|--3--------3----3------|
----------------------------------|-----------------------|


  E.  S S S S E  S S S S S S S  
-------------------------------|
-------------------------------|
--5-----5----------------------|
----------x-x-2--x-x-3-x-x-4---|
-------------------------------|


  Refrão: E se quiser saber pra onde eu vou...                         
  E.                                           S S S S E  S S S E  E   
----------------------------------------------------------------------|
----------------------------------------------------------------------|
----------------------------------------------------------------------|
--5----------------------------------------------5-0-3-5--5-0-3-5--0--|
----------------------------------------------------------------------|


  E.  S S S S E  S S S E  E     E.  S S S S E  S S S E  E   
-----------------------------|-----------------------------|
-----------------------------|-----------------------------|
--7-----7-----7--7-----7-----|--5-----5-----5--5-----5-----|
----------5-7------5-7----5--|----------3-5------3-5----3--|
-----------------------------|-----------------------------|


  E.  S S S S E  S S S E  E   
-----------------------------|
-----------------------------|
-----------------------------|
--5-----5-0-3-5--5-0-3-5--0--|
-----------------------------|


  E se quiser saber pra onde eu vou...                         
  E.                                   S S S S E  S S S E  E   
--------------------------------------------------------------|
--------------------------------------------------------------|
--------------------------------------------------------------|
--5--------------------------------------5-0-3-5--5-0-3-5--0--|
--------------------------------------------------------------|


  E.  S S S S E  S S S E  E     E.  S S S S E  S S S E  E   
-----------------------------|-----------------------------|
-----------------------------|-----------------------------|
--7-----7-----7--7-----7-----|--5-----5-----5--5-----5-----|
----------5-7------5-7----5--|----------3-5------3-5----3--|
-----------------------------|-----------------------------|


  E.  S S S S S S S S S S S E     S S S E.  S S S S S E  S S  S  
-------------------------------|--------------------------------|
-------------------------------|--------------------------------|
--------4-4---4-5-5---5-5-6-7--|------------x-4---x-5----x-5h-7-|
--5---5------------------------|--5---5-------------------------|
-------------------------------|--------------------------------|


  S S S E  S S S S S S S E  E     S S S S S S S S S S S E  S S  S  
-------------------------------|----------------------------------|
-------------9-7---------------|----------------------------------|
-----------7-------x-x-x-5--7--|----------4---x-5---x-7----x-5h-7-|
--5---5------------------------|--5---5---------------------------|
-------------------------------|----------------------------------|


  S S S E  S S S S S S S E  E     S S S E.  S S S S S E  S S  S  
-------------------------------|--------------------------------|
-------------9-7---------------|--------------------------------|
-----------7-------x-x-x-5--7--|------------x-4---x-5----x-5h-7-|
--5---5------------------------|--5---5-------------------------|
-------------------------------|--------------------------------|


  S S S E  S S S S S S S E  E     S S S S S S S S S S S E  S S  S  
-------------------------------|----------------------------------|
-------------9-7---------------|----------------------------------|
-----------7-------x-x-x-5--7--|----------4---x-5---x-7----x-5h-7-|
--5---5------------------------|--5---5---------------------------|
-------------------------------|----------------------------------|


   S  S  T T  E   S  S  E   S  S  S  S  S  E    
--14-12----------------------------------------|
--------14---14--12----------------------------|
--------------------14-12-----------12-14-12\--|
---------------------------15-12-15------------|
-----------------------------------------------|


  Refrão: E se quiser saber pra onde eu vou...                         
  E.                                           S S S S E  S S S E  E   
----------------------------------------------------------------------|
----------------------------------------------------------------------|
----------------------------------------------------------------------|
--5----------------------------------------------5-0-3-5--5-0-3-5--0--|
----------------------------------------------------------------------|


  E.  S S S S E  S S S E  E     E.  S S S S E  S S S E  E   
-----------------------------|-----------------------------|
-----------------------------|-----------------------------|
--7-----7-----7--7-----7-----|--5-----5-----5--5-----5-----|
----------5-7------5-7----5--|----------3-5------3-5----3--|
-----------------------------|-----------------------------|


  E.  S S S S E  S S S E  E   
-----------------------------|
-----------------------------|
-----------------------------|
--5-----5-0-3-5--5-0-3-5--0--|
-----------------------------|


  E se quiser saber pra onde eu vou...                         
  E.                                   S S S S E  S S S E  E   
--------------------------------------------------------------|
--------------------------------------------------------------|
--------------------------------------------------------------|
--5--------------------------------------5-0-3-5--5-0-3-5--0--|
--------------------------------------------------------------|


  E.  S S S S E  S S S E  E     E.  S S S S E  S S S E  E   
-----------------------------|-----------------------------|
-----------------------------|-----------------------------|
--7-----7-----7--7-----7-----|--5-----5-----5--5-----5-----|
----------5-7------5-7----5--|----------3-5------3-5----3--|
-----------------------------|-----------------------------|


  E.  S S S S S S S S S S S E   
-------------------------------|
-------------------------------|
--------4-4---4-5-5---5-5-6-7--|
--5---5------------------------|
-------------------------------|


  E se quiser saber pra onde eu vou...                         
  E.                                   S S S S E  S S S E  E   
--------------------------------------------------------------|
--------------------------------------------------------------|
--------------------------------------------------------------|
--5--------------------------------------5-0-3-5--5-0-3-5--0--|
--------------------------------------------------------------|


  E.  S S S S E  S S S E  E     E.  S S S S E  S S S E  E   
-----------------------------|-----------------------------|
-----------------------------|-----------------------------|
--7-----7-----7--7-----7-----|--5-----5-----5--5-----5-----|
----------5-7------5-7----5--|----------3-5------3-5----3--|
-----------------------------|-----------------------------|


  E.  S S S S E  S S S E  E   
-----------------------------|
-----------------------------|
-----------------------------|
--5-----5-0-3-5--5-0-3-5--0--|
-----------------------------|


  E se quiser saber pra onde eu vou...                         
  E.                                   S S S S E  S S S E  E   
--------------------------------------------------------------|
--------------------------------------------------------------|
--------------------------------------------------------------|
--5--------------------------------------5-0-3-5--5-0-3-5--0--|
--------------------------------------------------------------|


  E.  S S S S E  S S S E  E     Q.     E  S S S S S S E   
-----------------------------|---------------------------|
-----------------------------|---------------------------|
--7-----7-----7--7-----7-----|--5---------5---4---2------|
----------5-7------5-7----5--|------------------------5--|
-----------------------------|---------------------------|


                            |-3-|  
  S S S S S S S E  S S E  S S S S  
--6-6---4-------------------------|
------------7---4----4-7--7-4-----|
-------------------7----------7-4-|
----------------------------------|
----------------------------------|


  Lá.... lá lá lá láááá lá                          
  E                        E  S S S E  S S S E  E   
---------------------------------------------------|
----------------------------------9-7--7-----7--9--|
--------------------------------7--------7-9-------|
--5------------------------5-----------------------|
---------------------------------------------------|


  S E  S S E  E  S S E  S S S    Q.     E  S S S S S S E   
------------------------------|---------------------------|
---------6-6--7--7-8-9--7-----|---------------------------|
--7-7--7------------------9-7-|--5---------5---4---2------|
------------------------------|------------------------5--|
------------------------------|---------------------------|


                            |-3-|  
  S S S S S S S E  S S E  S S S S  
--6-6---4-------------------------|
------------7---4----4-7--7-4-----|
-------------------7----------7-4-|
----------------------------------|
----------------------------------|


  Lá.... lá lá lá láááá lá                          
  E                        E  S S S E  S S S E  E   
---------------------------------------------------|
----------------------------------9-7--7-----7--9--|
--------------------------------7--------7-9-------|
--5------------------------5-----------------------|
---------------------------------------------------|


  S E  S S E  E  S S E  S S S    Q.     E  S S S S S S E   
------------------------------|---------------------------|
---------6-6--7--7-8-9--7-----|---------------------------|
--7-7--7------------------9-7-|--5---------5---4---2------|
------------------------------|------------------------5--|
------------------------------|---------------------------|


                            |-3-|  
  S S S S S S S E  S S E  S S S S  
--6-6---4-------------------------|
------------7---4----4-7--7-4-----|
-------------------7----------7-4-|
----------------------------------|
----------------------------------|


  Lá.... lá lá lá láááá lá                          
  E                        E  S S S E  S S S E  E   
---------------------------------------------------|
----------------------------------9-7--7-----7--9--|
--------------------------------7--------7-9-------|
--5------------------------5-----------------------|
---------------------------------------------------|


  E  E  S S  S E  S S  S E   E     Q.     E  S S S S S S E   
------------11-9--9------9--11--|---------------------------|
----------9---------9-11--------|---------------------------|
--7--7--------------------------|--5---------5---4---2------|
--------------------------------|------------------------5--|
--------------------------------|---------------------------|


  S S S S S S S E  S S S S S S S  
--6-6---4------------------------|
------------7---4----4-7-4-------|
-------------------7-------7-4---|
-------------------------------7-|
---------------------------------|


  Lá.... lá lá lá láááá lá                                                     
  Q                        S S S E  S S S E  E     E.  S S E  E  S S E  S S S  
------------------------------------------------|-----------------------------|
-------------------------------9-7--7-----7--9--|--------6-6--7--7-8-9--7-----|
-----------------------------7--------7-9-------|--7---7------------------9-7-|
--5---------------------------------------------|-----------------------------|
------------------------------------------------|-----------------------------|


  Fade in...                           
  Q.         E  S S S S S S E          
-------------------------------|-----||
-------------------------------|-----||
--5-------------5---4---2------|-----||
----------------------------5--|-----||
-------------------------------|-----||


É isso aí galera! esse é um dos sons que vocês vão encontrar no Repertório da Banda Taj Mahal!
Entre em contato com a gente! Faça a sua formatura com melhor banda de Floripa!
www.bandatajmahal.com.br ou mande um email para: bandatajmahal@bandatajmahal.com.br

Duração das notas
-----------------
W = semibreve
H = minima
Q = seminima
E = colcheia
S = semicolcheia
T = fusa

Legenda da Tablatura
--------------------
x - dead note
h - hammer on
p - pull off
Composição de Antônio Julio Nastácia
Colaboração e revisão:
  • Vagner Pichinatti
12.063 exibições

0 comentários

Ver todos os comentários

Conseguiu tocar?

0 Tocaram 0 Ainda não

Grave um vídeo tocando O Sol e nos envie!

00:00 / 00:00
Outros vídeos desta música
Repetir Qualidade Automático
Outros vídeos desta música
00:00 / 00:00
Automático

Cifra Club Pro

Aproveite o Cifra Club com benefícios exclusivos e sem anúncios
Cifra Club Pro
Aproveite o Cifra Club com benefícios exclusivos e sem anúncios
OK