Notificações Amigos pendentes

      Journey

      Don't Stop Believin'

      199.847 exibições
      Tom: E
      Introdução: E  B  C#m  A
                  E  B  G#m  A
      
       
      Primeira Parte:
       
      E      B                 C#m
        Just a small town girl
                A              E
      Livin' in a lonely world
                 B
      She took the midnight train 
            G#m  A   E
      Going anywhere
      
        H.N   .
      
      E|------7-----------------------------------------------|
      B|-12---------------------------------------------------|
      G|------------------------------------------------------|
      D|------------------------------------------------------|
      A|------------------------------------------------------|
      E|------------------------------------------------------|
      
      
              B       C#m
      Just a city boy
                          A            E
      Born and raised in South Detroit
                B
      He took the midnight train 
            G#m  A
      Going anywhere
      
        H.N  .
      
      E|-7----------------------------------------------------|
      B|-----12-----------------------------------------------|
      G|------------------------------------------------------|
      D|------------------------------------------------------|
      A|------------------------------------------------------|
      E|------------------------------------------------------|
      
      
      ( E  B  C#m  A )
      
      ( E  B  G#m  A )
      
         P.M.  .  .  .     .  .  .     .  .  .     .  .
      
      E|------------------------------------------------------|
      B|-17p16-------17p16-------17p16-------17p16------...---|
      G|-------18-16-------18-16-------18-16-------18-16...---|
      D|------------------------------------------------------|
      A|------------------------------------------------------|
      E|------------------------------------------------------|
      
      
      E|-----------------------------------------19-------19--|
      B|-17p16-------17p16-------17p16------...--19b21~~-b21\-|
      G|-------18p16-------18p16-------18p16...---------------|
      D|------------------------------------------------------|
      A|------------------------------------------------------|
      E|------------------------------------------------------|
      
      
      E                 B        C#m
        A singer in a smoky room
                              A           E
      The smell of wine and cheap perfume
                            B
      For a smile, they can   share the night
              G#m           A
      It goes on and on and on and on
      
      
      Segunda Parte:
      
         A5             E5
      Strangers waiting
      
      Up and down the boulevard
              A5                      E5
      Their shadows searching in the night
      
         A5                E5
      Streetlights, people
      
      Living just to find emotion
       A5                      B5    E5  B5  E5  A5
      Hiding somewhere in the night
      
      
      Terceira Parte:
      
      
         E         B        C#m      A
      E|---0--------------------------------------------------|
      B|---0--------------------------------------------------|
      G|---1--------------------------------------------------|
      D|------------------------------------------------------|
      A|-----------2----4-6-4----6-7------6-7-----------------|
      E|-0---0-2-4-------------------5------------------------|
      
      
         E         B        G#m      A
      E|---0--------------------------------------------------|
      B|---0--------------------------------------------------|
      G|---1--------------------------------------------------|
      D|------------------------------------------------------|
      A|-----------2----4-6---------------6-7-----------------|
      E|-0---0-2-4----------4----4-4-5------------------------|
      
      
      E                  B          C#m
        Working hard to get my fill
                A                E
      Everybody   wants a thrill
                          B
      Payin' anything to roll the dice
           G#m       A   E
      Just one more time
      
                    B                C#m
      Some will win   some will lose
                         A             E
      Some were born to sing the blues
                 B
      Oh, the movie never ends
              G#m           A
      It goes on and on and on and on
      
      
      Quarta Parte:
      
         A5             E5
      Strangers waiting
      
      Up and down the boulevard
              A5                      E5
      Their shadows searching in the night
      
         A5                E5
      Streetlights, people
      
      Living just to find emotion
       A5                      B5    E5  B5  E5  A5
      Hiding somewhere in the night
      
      
      Solo: E  B  C#m  A
            E  B  G#m  A
      
      
      E|------------------------------------------------------|
      B|-------------------16h17h19-21b22r--21~--19-21b22r--21|
      G|----------14h16h18------------------------------------|
      D|-14h16h18---------------------------------------------|
      A|------------------------------------------------------|
      E|------------------------------------------------------|
      
      
      E|------------------------------------------------------|
      B|-21b22r21-19-17-16~-17-14~-12-------------------------|
      G|------------------------------14----------------------|
      D|------------------------------------------------------|
      A|------------------------------------------------------|
      E|------------------------------------------------------|
      
      
      E|-16b17r-16~---14-16b17r-16~---14----17b19-------------|
      B|---------------------------------17-------------------|
      G|------------------------------------------------------|
      D|------------------------------------------------------|
      A|------------------------------------------------------|
      E|------------------------------------------------------|
      
      
      (Dobra 1)
      
      
      E|-19b21------------------------------------------------|
      B|------------------------------------------------------|
      G|------------------------------------------------------|
      D|------------------------------------------------------|
      A|------------------------------------------------------|
      E|------------------------------------------------------|
      
      
      (Dobra 2)
      
      
      E|-24\--------------------------------------------------|
      B|------------------------------------------------------|
      G|------------------------------------------------------|
      D|------------------------------------------------------|
      A|------------------------------------------------------|
      E|------------------------------------------------------|
      
      
      
      Refrão:
      
      E             B        C#m
        Don't stop believin'
                   A         E
      Hold on to the feelin'
                   B        G#m A
      Streetlights   people
      
      E             B        C#m
        Don't stop believin'
                   A         E
      Hold on to the feelin'
                   B        G#m A
      Streetlights   people
      
      E             B        C#m
        Don't stop believin'
                   A         E
      Hold on to the feelin'
                   B        G#m A
      Streetlights   people
        Composição: Jonathan Cain / Neal Schon / Steve PerryColaboração e revisão:
        • v.inny
        • bruno.tumelero.31
        • henrique.melo
        • Pedro Lobo

        Comentários 8

        140 .
        • nanzinho2 nanzinho2: Em 18/06/2015 21:35

          o solo ta certo mas ta fora do compasso...

        • redhotguns redhotguns: Em 28/07/2013 02:19

          o Solo no site da songsterr ta mais certo q esse

        • fezao1 fezao1: Em 04/07/2013 22:27

          affs solo nd a ver

        • singed singed: Em 30/12/2011 14:06

          esse solo nao ta errado?

        • markadams markadams: Em 11/08/2011 09:59

          ótima música, fácil de tocar

        • qwerty1234 qwerty1234: Em 27/07/2011 18:54

          video-aula dessa MUSICA

        • MegaMat MegaMat: Em 23/04/2011 19:54

          eu consegui tocar o piano e o baixo juntos no meu violao!

        140 cancelar

        conseguiu tocar?

        • •••
        Claudio Berger76.455 visualizações
          ver covers de outras músicas »
          0:00 / 0:00
          3 versões de violão dificuldade exibições contribuição e correção
          3 versões de guitarra dificuldade exibições contribuição e correção
          3 versões de cavaco dificuldade exibições contribuição e correção
          3 versões de teclado dificuldade exibições contribuição e correção
          1 versão de baixo exibições contribuição e correção
          1 versão de gaita exibições contribuição e correção
          3 versões de Guitar Proformatodownloadscontribuição
          1 versão de partiturasformatodownloadscontribuição
          play/pausefechar subir/descer velocidade
          6ª corda E5ª corda A4ª corda D3ª corda G2ª corda B1ª corda E
            acordes
            transcrição verificada v.inny instrutor de guitarra
            publicidade
            fechar
            ok