Cifra Club

Don't Stop Believin'

Journey

Cifra: Principal
exibições 241.130
Tom: E
Introdução: E  B  C#m  A
            E  B  G#m  A

Piano:

        E
E|--7---7---7---7------------------|
B|--5---5---5---5------------------|
G|----4---4---4---4----------------|
D|---------------------------------|
A|---------------------------------|
E|---------------------------------|

        B
E|--7---7---7---7------------------|
B|--7---7---7---7------------------|
G|----4---4---4---4----------------|
D|---------------------------------|
A|---------------------------------|
E|---------------------------------|

        C#m
E|--7---7---7---7------------------|
B|--5---5---5---5------------------|
G|----4---4---4---4----------------|
D|---------------------------------|
A|---------------------------------|
E|---------------------------------|

        A
E|--5---5---5---5------------------|
B|--2---2---2---2------------------|
G|----2---2---2---2----------------|
D|---------------------------------|
A|---------------------------------|
E|---------------------------------|

        E
E|--7---7---7---7------------------|
B|--5---5---5---5------------------|
G|----4---4---4---4----------------|
D|---------------------------------|
A|---------------------------------|
E|---------------------------------|
 
        B
E|--7---7---7---7------------------|
B|--7---7---7---7------------------|
G|----4---4---4---4----------------|
D|---------------------------------|
A|---------------------------------|
E|---------------------------------|

        G#m
E|--7---7---7---7------------------|
B|--4---4---4---4------------------|
G|----4---4---4---4----------------|
D|---------------------------------|
A|---------------------------------|
E|---------------------------------|

        A
E|--5---5---5---5------------------|
B|--2---2---2---2------------------|
G|----2---2---2---2----------------|
D|---------------------------------|
A|---------------------------------|
E|---------------------------------|



 
Primeira Parte:
 
E      B                 C#m
  Just a small town girl
          A              E
Livin' in a lonely world
           B
She took the midnight train 
      G#m  A   E
Going anywhere


  H.N   .

E|------7-----------------------------------------------|
B|-12---------------------------------------------------|
G|------------------------------------------------------|
D|------------------------------------------------------|
A|------------------------------------------------------|
E|------------------------------------------------------|


        B       C#m
Just a city boy
                    A            E
Born and raised in South Detroit
          B
He took the midnight train 
      G#m  A
Going anywhere

  H.N  .

E|-7----------------------------------------------------|
B|-----12-----------------------------------------------|
G|------------------------------------------------------|
D|------------------------------------------------------|
A|------------------------------------------------------|
E|------------------------------------------------------|


( E  B  C#m  A )

( E  B  G#m  A )

   P.M.  .  .  .     .  .  .     .  .  .     .  .

E|------------------------------------------------------|
B|-17p16-------17p16-------17p16-------17p16------------|
G|-------18-16-------18-16-------18-16-------18-16------| 
D|------------------------------------------------------|
A|------------------------------------------------------|
E|------------------------------------------------------|
(repete acelerando)

E|-----------------------------------------19-------19--|
B|-17p16-------17p16-------17p16-----------19b21~--b21\-|
G|-------18p16-------18p16-------18p16------------------|
D|------------------------------------------------------|
A|------------------------------------------------------|
E|------------------------------------------------------|


E                 B        C#m
  A singer in a smoky room
                        A           E
The smell of wine and cheap perfume
                      B
For a smile, they can   share the night
        G#m           A
It goes on and on and on and on


Segunda Parte:

        B   A     B   E     B   E     B   E
E|---------------------------------------|  
B|--7---5-----7---9-----7---9-----7---9--|
G|--8---6-----8---9-----8---9-----8---9--|   (3x) 
D|--9---7-----9---9-----9---9-----9---9--|   
A|---------------------------------------|
E|---------------------------------------|   

        B   A     B   E     B   B4    B B4  A
E|-----------------------------------------|  
B|--7---5-----7---9-----7---9-----7--9--5--|
G|--8---6-----8---9-----8---9-----8--9--6--|
D|--9---7-----9---9-----9---7-----9--7--7--|   
A|-----------------------------------------|
E|-----------------------------------------|  


Outro: (pode ser tocado por uma segunda guitarra junto ao anterior)


Strangers, waiting...

        B   A     B   E     B   E     B   E
E|--11--9-----11--12----11--12----11--12--|
B|--12--10----12--12----12--12----12--12--|
G|--11--9-----11--13----11--13----11--13--|   (3x) 
D|----------------------------------------|   
A|----------------------------------------|
E|----------------------------------------|   

        B   A     B   E     B   B4    B   B4  A
E|--11--9-----11--12----11--12----11--12--9---|
B|--12--10----12--12----12--12----12--12--10--|
G|--11--9-----11--13----11--11----11--11--9---|
D|--------------------------------------------|
A|--------------------------------------------|
E|--------------------------------------------|


 B   A     B  E     B  E
Strangers waiting
              B      E
Up and down the boulevard
       B  A     B    E        B    E    B  E
Their shadows searching in the night

B      A       B    E    B    E
Streetlights, people
                 B     E
Living just to find emotion
B  A    B    E              B  B4  B B4 A
Hiding somewhere in the night



Terceira Parte:


       E           B            C#m          A
E|----0---------------------------------------------|
B|----0--------4--------------5-5-------------------|
G|----1--------4--4-----------6-6---------6-6-------|
D|--2----------4--4-----------6-6---------7-7-------|
A|--2----------2--2-(2)--4/6--4-----6-7---7-7--6-7--|
E|--0---0-2h4-----------------------------5---------|

       E           B            G#m          A
E|----0---------------------------------------------|
B|----0--------4------------------------------------|
G|----1--------4--4-----------4-4-4-------6-6-------|
D|--2----------4--4-----------6-6-6-------7-7-------|
A|--2----------2--2-(2)--4/6--6-6-6-------7-7--6-7--|
E|--0---0-2h4-----------------4---4-------5---------|



E                  B          C#m
  Working hard to get my fill
          A                E
Everybody   wants a thrill
                    B
Payin' anything to roll the dice
     G#m       A   E
Just one more time

              B                C#m
Some will win   some will lose
                   A             E
Some were born to sing the blues
           B
Oh, the movie never ends
        G#m           A
It goes on and on and on and on


Quarta Parte:


        B   A     B   E     B   E     B   E
E|---------------------------------------|  
B|--7---5-----7---9-----7---9-----7---9--|
G|--8---6-----8---9-----8---9-----8---9--|   (3x) 
D|--9---7-----9---9-----9---9-----9---9--|   
A|---------------------------------------|
E|---------------------------------------|   

        B   A     B   E     B   B4    B B4  A
E|-----------------------------------------|  
B|--7---5-----7---9-----7---9-----7--9--5--|
G|--8---6-----8---9-----8---9-----8--9--6--|   
D|--9---7-----9---9-----9---7-----9--7--7--|   
A|-----------------------------------------|
E|-----------------------------------------|  


 B   A     B  E     B  E
Strangers waiting
              B      E
Up and down the boulevard
       B  A     B    E        B    E    B  E
Their shadows searching in the night

B      A       B    E    B    E
Streetlights, people
                 B     E
Living just to find emotion
B  A    B    E              B  B4  B B4 A
Hiding somewhere in the night



Solo: E  B  C#m  A
      E  B  G#m  A


E|-(14)-16b18--16~-14--16b18--16~--16-16b18--14---------------|
B|----------------------------------------------17-16-17--14~-|
G|------------------------------------------------------------|
D|------------------------------------------------------------|
A|------------------------------------------------------------|
E|------------------------------------------------------------|

E|------16b18-16~-(14)-16b18--16~-16~--14---17b20-------(21t...)-r17-|
B|-------------------------------------------------17----------------|
G|-16-14-------------------------------------------------------------|
D|-------------------------------------------------------------------|
A|-------------------------------------------------------------------|
E|-------------------------------------------------------------------|



Refrão:

E             B        C#m
  Don't stop believin'
             A         E
Hold on to the feelin'
             B        G#m A
Streetlights   people

E             B        C#m
  Don't stop believin'
             A         E
Hold on to the feelin'
             B        G#m A
Streetlights   people

E             B        C#m
  Don't stop believin'
             A         E
Hold on to the feelin'
             B        G#m A
Streetlights   people
Acordes para:

    0 comentários

      mostrar mais comentários

      Conseguiu tocar?

      24tocaram0ainda não

      Grave um vídeo tocando Don't Stop Believin' e mande pra gente!

      00:00 / 00:00
      outros vídeos desta música
      repetirqualidadeautomática
      Outro vídeos desta música
        00:00 / 00:00
        automática
        Capítulos
        • Tocando a música
        • Dicas Iniciais / Equipamentos
        • Tocando Introdução e Primeira Parte
        • Riff da Primeira Estrofe
        • Riff da Segunda Estrofe
        • Riff da Passagem
        • Acordes Segunda Parte
        • Tocando Segunda Parte
        • Segunda Parte
        • Dicas Terceira Parte
        • Tocando Terceira Parte
        • Terceira Parte - Riff Principal
        • Dicas Quarta Parte - Solo
        • Tocando Quarta Parte - Solo
        • Solo - Parte 1 de 2
        • Solo - Parte 2 de 2
        • Solo - Parte 1 de 2 (Dobra 1 e 2)
        • Dicas Finais
        • Tocando Final
        • Encerramento
        • Ficha técnica / Erros de gravação
        OK