Don't Stop Believin'

Journey

Composição de: Jonathan Cain / Neal Schon / Steve Perry
tom: E
[Intro] E  B  C#m  A
        E  B  G#m  A

[Primeira Parte]
 
E      B                 C#m
  Just a small town girl
          A              E
Livin' in a lonely world
           B
She took the midnight train 
      G#m  A   E
Going anywhere

[Tab - Primeira Parte]

  H.N   .
E|------7-----------------------------------------------|
B|-12---------------------------------------------------|
G|------------------------------------------------------|
D|------------------------------------------------------|
A|------------------------------------------------------|
E|------------------------------------------------------|

        B       C#m
Just a city boy
                    A            E
Born and raised in South Detroit
          B
He took the midnight train 
      G#m  A
Going anywhere

[Tab - Primeira Parte]

  H.N  .
E|-7----------------------------------------------------|
B|-----12-----------------------------------------------|
G|------------------------------------------------------|
D|------------------------------------------------------|
A|------------------------------------------------------|
E|------------------------------------------------------|

( E  B  C#m  A )
( E  B  G#m  A )

[Tab - Passagem]

   P.M.  .  .  .     .  .  .     .  .  .     .  .
E|------------------------------------------------------|
B|-17p16-------17p16-------17p16-------17p16------...---|
G|-------18-16-------18-16-------18-16-------18-16...---|
D|------------------------------------------------------|
A|------------------------------------------------------|
E|------------------------------------------------------|

(repete acelerando)
E|-----------------------------------------19-------19--|
B|-17p16-------17p16-------17p16------...--19b21~--b21\-|
G|-------18p16-------18p16-------18p16...---------------|
D|------------------------------------------------------|
A|------------------------------------------------------|
E|------------------------------------------------------|

E                 B        C#m
  A singer in a smoky room
                        A           E
The smell of wine and cheap perfume
                      B
For a smile, they can   share the night
        G#m           A
It goes on and on and on and on

[Segunda Parte]

   A5             E5
Strangers waiting

Up and down the boulevard
        A5                      E5
Their shadows searching in the night

   A5                E5
Streetlights, people

Living just to find emotion
 A5                      B5
Hiding somewhere in the night

( E5  B5  E5  A5 )

[Terceira Parte]

[Tab - Terceira Parte]

    E          B        C#m      A
E|----0---------------------------------------------|
B|----0---------------------------------------------|
G|----1---------------------------------------------|
D|--------------------------------------------------|
A|-------------2----4-6-4----6-7------6-7-----------|
E|--0---0-2-4--------------------5------------------|

    E          B        G#m      A
E|----0---------------------------------------------|
B|----0---------------------------------------------|
G|----1---------------------------------------------|
D|--------------------------------------------------|
A|-------------2----4-6---------------6-7-----------|
E|--0---0-2-4-----------4----4-4-5------------------|

E                  B          C#m
  Working hard to get my fill
          A                E
Everybody   wants a thrill
                    B
Payin' anything to roll the dice
     G#m       A   E
Just one more time

              B                C#m
Some will win   some will lose
                   A             E
Some were born to sing the blues
           B
Oh, the movie never ends
        G#m           A
It goes on and on and on and on

[Quarta Parte]

   A5             E5
Strangers waiting

Up and down the boulevard
        A5                      E5
Their shadows searching in the night

   A5                E5
Streetlights, people

Living just to find emotion
 A5                      B5
Hiding somewhere in the night

( E5  B5  E5  A5 )

[Solo] E  B  C#m  A
       E  B  G#m  A

[Tab - Solo]

Parte 1 de 2
E|------------------------------------------------------|
B|-------------------16h17h19-21b22r--21~-19-21b22r-21~-|
G|----------14h16h18------------------------------------|
D|-14h16h18---------------------------------------------|
A|------------------------------------------------------|
E|------------------------------------------------------|

E|------------------------------------------------------|
B|-21b22r21-19-17-16~-17-14~-12-------------------------|
G|------------------------------14----------------------|
D|------------------------------------------------------|
A|------------------------------------------------------|
E|------------------------------------------------------|
E|------------------------------------------------------|

Parte 2 de 2
B|-16b17r-16~---14-16b17r-16~---14----17b19-------------|
G|---------------------------------17-------------------|
D|------------------------------------------------------|
A|------------------------------------------------------|
E|------------------------------------------------------|

Parte 2 de 2 (dobra 1)
B|-19b21------------------------------------------------|
G|------------------------------------------------------|
D|------------------------------------------------------|
A|------------------------------------------------------|
E|------------------------------------------------------|

Parte 2 de 2 (dobra 2)
B|-22b24\-----------------------------------------------|
G|------------------------------------------------------|
D|------------------------------------------------------|
A|------------------------------------------------------|
E|------------------------------------------------------|

[Refrão]

E             B        C#m
  Don't stop believin'
             A         E
Hold on to the feelin'
             B        G#m  A
Streetlights   people

E             B        C#m
  Don't stop believin'
             A         E
Hold on to the feelin'
             B        G#m  A
Streetlights   people

E             B        C#m
  Don't stop believin'
             A         E
Hold on to the feelin'
             B        G#m  A
Streetlights   people

Don't stop
Página 1 / 1

Letras e título
Acordes e artista

resetar configurações
OK