Cifra Club

Aprenda

Faith In The Heartland

Journey

Cifra: Principal (violão e guitarra)
Tom: A
Intro:
E|------------------------------------------|
B|----------------------------------------9-|
G|------9b(11)r(9)b(11)-9b(11)---9---9-11---|
D|-9----------------------------------------|
A|------------------------------------------|
E|------------------------------------------|

E|--------------12---10p9----------|
B|-10---9-----------------12---10--|
G|----------9----------------------|
D|---------------------------------|
A|---------------------------------|
E|---------------------------------|

E|---------12b(14)r(12)b(14)-12b(14)---12---12/14/16-|
B|-12-----x------------------------------------------|
G|-------x-------------------------------------------|
D|---------------------------------------------------|
A|---------------------------------------------------|
E|---------------------------------------------------|

E|-16b(17)---16---12-------------------------------------------|
B|---------------------14---(14)b(15)r(14)---(14)b(15)r(14)----|
G|-------------------------------------------------------------|
D|-------------------------------------------------------------|
A|-------------------------------------------------------------|
E|-------------------------------------------------------------|

Verso:
B                    E
He goes to work in a brand new dawn
         D             A
With the early morning sunrise
B                           E
He's got his dream and he's holding on
             D            A
It's getting harder every day
B                   E
He loves a girl who speaks her mind
             D                A
Don't always look at life the same way
B                       E
Sharing truth that will heal in time

Refrão:
     A                         D
They want to believe something real... still they're searching
        F#m                      D           E
They're keeping the faith in the heartland tonight
E|------------------------------------------|
B|----------------------------------------9-|
G|------9b(11)r(9)b(11)-9b(11)---9---9-11---|
D|-9----------------------------------------|
A|------------------------------------------|
E|------------------------------------------|

E|--------------12---10p9----------|
B|-10---9-----------------12---10--|
G|----------9----------------------|
D|---------------------------------|
A|---------------------------------|
E|---------------------------------|

E|---------12b(14)r(12)b(14)-12b(14)---12---12/14/16-|
B|-12-----x------------------------------------------|
G|-------x-------------------------------------------|
D|---------------------------------------------------|
A|---------------------------------------------------|
E|---------------------------------------------------|

E|-16b(17)---16---12-------------------------------------------|
B|---------------------14---(14)b(15)r(14)---(14)b(15)r(14)----|
G|-------------------------------------------------------------|
D|-------------------------------------------------------------|
A|-------------------------------------------------------------|
E|-------------------------------------------------------------|

Verso:
B                    E
Time moves on as the fading town
        D                 A
As they struggle with the changes
B                                    E
The stores have closed, friends have moved away
         D                   A
Now it's hope that sees them through
B                               E
The kids have grown but they'll see them all
       D            A
At the Sunday congregation
B                         E
Sharing dreams truth will heal in time

Refrão:
     A                         D
They want to believe something real... still they're searching
        F#m                      D           E
They're keeping the faith in the heartland tonight
     A                              D
It's words that divide them... it's love that defines them
        F#m                      D           E
They're keeping the faith in the heartland tonight

Ponte:
C                           G
In our darkest hour, oh, we look to the sky
Bb                                   F
With a silent prayer... believe that God's on our side
G                                 D
In a land where freedom rings and where eagles fly

( E G D A (3x) E G A )

A      D                          F#m         D     E
            Ooh, I just want to believe it
A               D
    Give me something to believe in
            F#m                      D      E
We all need something to believe in, ooh, tonight

    E            G           D       A
Got faith... got dreams... believe
E        G                   D       A
   We're keeping the faith tonight

( E G D A ) (2x)
Composição de Augeri / Cain / Schon
Colaboração e revisão:
  • Mansinho Jr.
307 exibições
    • ½ Tom
    • A
    • Bb
    • B
    • C
    • Db
    • D
    • Eb
    • E
    • F
    • F#
    • G
    • Ab
  • Adicionar à lista

    0 comentários

    Mostrar mais comentários

    Conseguiu tocar?

    0 Tocaram 0 Ainda não

    Grave um vídeo tocando Faith In The Heartland e mande pra gente!

    00:00 / 00:00
    outros vídeos desta música
    repetir qualidade Automático
    Outros vídeos desta música
    00:00 / 00:00
    Automático

    Cifra Club Pro

    Aproveite o Cifra Club com benefícios exclusivos e sem anúncios
    7 dias grátis
    Cifra Club Pro
    Aproveite o Cifra Club com benefícios exclusivos e sem anúncios
    7 dias grátis
    OK