Cifra Club

Lovin', Touchin', Squeezin'

Journey

Tab de baixo: Principal
 INTRO

G|--------------------------------|------------------------------|
D|--------------------------------|------------------------------|
A|0-r---0-0-r---0-0-r---0-0-r---0-|0-r---0-0-r---0-0-r---0-5-0-3-|
E|--------------------------------|------------------------------|

Verso 1:
                                                      "You make me
G|------------------------------|--------------------------------|
D|------------------------------|--------------------------------|
A|0-r---0-0-r---0-0-r---0---0-3-|0-r---0-0-r---0-0-r---0-0-r---0-|
E|------------------------3-----|--------------------------------|

 weep ____"
G|--------------------------------|------------------------------|
D|--------------------------------|------------------------------|
A|0-r---0-0-r---0-0-r---0-0-r---0-|0-r---0-0-r---0-0-r---0-0-2-4-|
E|--------------------------------|------------------------------|
                 
G|----------------------------4-|-------------------------------|
D|------------------------4-7---|------------------------4-7----|
A|5-r---5-5-r---5-5-r---5-------|5-r---5-5-r---5-5-r---5-----7\-|
E|------------------------------|-------------------------------|

 "Lovin'         touchin'          squeezin'
G|---------------------------------|--------------------------------|
D|---------------------------------|--------------------------------|
A|0-r---0-0-r---0-7-r---7-7-r---7\-|--------------------------------|
E|---------------------------------|3-r---3-3-r---3-3-r---3-3-r---3-|

1.
 each  other"
G|------------------------------|
D|------------------------------|
A|------0-0-r---0-0-r---0-5-0-3-|
E|3-----------------------------|

Verso 2:
|2.
 each  other"
G|------------------------------|
D|------------------------------|
A|------0-0-r---0-0-r---0-0-----|
E|3-------------------------4-3-|

Refrão:
       "You're tearing me apart ..."
G|--------------------------------|------------------------------|
D|--------------------------------|------------------------------|
A|--------------------------------|0-r---0-0-r---0-0-r---0-0-----|
E|2-r---2-2-r---2-2-r---2-2-r---3-|--------------------------4-3-|

G|------------------------------|------------------------------|
D|------------------------------|------------------------------|
A|------------------------------|0-r---0-0-r---0-0-r---0-0-----|
E|2-r---2-2-r---2-2-r---2-2-3-4-|--------------------------4-3-|

G|--------------------------------|------------------------------|
D|--------------------------------|------------------------------|
A|--------------------------------|------------------------------|
E|2-r---2-2-r---2-2-r---2-2-r---2-|3-3-3---3-3-3---3-3-3---3-2-1-|

G|------------------------------|
D|------------------------------|
A|------------------------5---0-|
E|0-0-0---0-0-0---0-r-------3---|

(Verso 2)

Refrão:
       "He's tearing you apart ..."
G|--------------------------------|------------------------------|
D|--------------------------------|------------------------------|
A|--------------------------------|0-r---0-0-r---0-0-r---0-0-----|
E|2-r---2-2-r---2-2-r---2-2-r---3-|--------------------------4-3-|

G|--------------------------------|------------------------------|
D|--------------------------------|------------------------------|
A|--------------------------------|0-r---0-0-r---0-0-r---0-0-----|
E|2-r---2-2-r---2-2-r---2-2-r---2-|--------------------------4-3-|

G|--------------------------------|------------------------------|
D|--------------------------------|------------------------------|
A|--------------------------------|0-r---0-0-r---0-0-r---0-0-----|
E|2-r---2-2-r---2-3-r---3-3-r---3-|--------------------------4-3-|

G|--------------------------------|
D|--------------------------------|
A|--------------------------------|
E|2-r---2-2-2-2--3-r--------------|

Refrão:
 "Na   na   na na  na  na ..."
G|--------------------------------|------------------------------|
D|--------------------------------|------------------------------|
A|0-r---0-0-r---0-0-r---0-0-r---0-|0-r---0-0-r---0-0-r---0-5-0-3-|
E|--------------------------------|------------------------------|

G|------------------------------|--------------------------------|
D|------------------------------|--------------------------------|
A|0-r---0-0-r---0-0-r---0-0-----|--------------------------------|
E|--------------------------4-3-|2-----2-2-----2-3-----3-3-----3-|
exibições 13
Composição: Steve Perry Colaboração e revisão:
  • Mansinho Jr.

0 comentários

mostrar mais comentários

Conseguiu tocar?

0 tocaram 0 ainda não

Grave um vídeo tocando Lovin', Touchin', Squeezin' e mande pra gente!

00:00 / 00:00
outros vídeos desta música
repetir qualidade Automático
Outros vídeos desta música
00:00 / 00:00
Automático
OK