Cifra Club

Message Of Love

Journey

Tab de baixo: Principal
G|------------------------|--------------------------|
D|------------------------|--------------------------|
A|--1----1----1--L--------|--4-----------------------|
E|------------------0-----|-----4--0--4--4--4-----4--|
                     
--------------------------|--------------------------|
--------------------------|--------------------------|
-----------------------1--|--------------------------|
--4--4-----4--4--4--------|--4--4-----4--4--4-----4--|

--------------------------|--------------------------|
--------------------------|--------------------------|
-----------------------1--|--------------------------|
--4--4-----4--4--4--------|--4--4-----4--4--4-----4--|

--------------------------|--------------------------|
--------------------------|--------------------------|
-----------------------1--|--------------------------|
--4--4-----4--4--4--------|--4--4-----4--4--4-----4--|
                                     
--------------------------|--------------------------|
--------------------------|--------------------------|
-----------------------1--|--4-----------------------|
--4--4-----4--4--4--------|-----4-----4--4--4-----4--|
                                      
--------------------------|--------------------------|
--------------------------|--------------------------|
-----------------------1--|--------------------------|
--4--4-----4--4--4--------|--4--4-----4--4--4-----4--|
                                      
--------------------------|--------------------------|
--------------------------|--------------------------|
-----------------------1--|--------------------------|
--4--4-----4--4--4--------|--4--4-----4--4--4-----4--|
                                      
--------------------------|--------------------------|
--------------------------|--------------------------|
-----------------------1--|--------------------------|
--4--4-----4--4--4--------|--4--4-----4--4--4-----4--|
                                      
--------------------------|--------------------------|
--------------------------|--------------------------|
-----------------------1--|--4-----------------------|
--4--4-----4--4--4--------|-----4-----4--4--4-----4--|

--------------------------|--------------------------|
--------------------------|--------------------------|
-----------------------1--|--------------------------|
--4--4-----4--4--4--------|--4--4-----4--4--4-----4--|

--------------------------|--------------------------|
--------------------------|--------------------------|
-----------------------1--|--------------------------|
--4--4-----4--4--4--------|--4--4-----4--4--4-----4--|
                                     
--------------------------|--------------------------|
--------------------------|--------------------------|
-----------------------1--|--------------------------|
--4--4-----4--4--4--------|--4--4-----4--4--4-----4--|
                                      
--------------------------|--------------------------|
--------------------------|--------------------------|
-----------------------1--|--4-----------------------|
--4--4-----4--4--4--------|-----4-----4--4--4-----4--|
                                      
--------------------------|--------------------------|
--------------------------|--------------------------|
-----------------------1--|--------------------------|
--4--4-----4--4--4--------|--4--4-----4--4--4-----4--|
                                      
--------------------------|--------------------------|
--------------------------|--------------------------|
-----------------------1--|--4-----------------------|
--4--4-----4--4--4--------|-----4-----4--4--4-----4--|
                                      
--------------------------|--------------------------|
--------------------------|--------------------------|
-----------------------1--|--4-----------------------|
--4--4-----4--4--4--------|-----4-----4--4--4-----4--|
                                     
--------------------------|--------------------------|
--------------------------|--------------------------|
-----------------------1--|--------------------------|
--4--4-----4--4--4--------|--4--4-----4--4--4-----4--|
                                     
--------------------------|--------------------------|
--------------------------|-----3--3--3--3--3--3--3--|
--------------------------|--4-----------------------|
--4--4-----4--0-----0--0--|--------------------------|
                                      
--------------------------|--------------------------|
--3--3--3--3--3--3--3--3--|--3--3--3--3--3--3--3--3--|
--------------------------|--------------------------|
--------------------------|--------------------------|
                                      
--------------------------|--------------------------|
--3--3--3--3--3--3--3--3--|-----3--3--3--3--3--3--3--|
--------------------------|--4-----------------------|
--------------------------|--------------------------|

--------------------------|--------------------------|
--3--3--3--3--3--3--3--3--|-----3--3--3--3-----------|
--------------------------|--4--------------------4--|
--------------------------|-----------------0--0-----|
                                      
--------------------------|--------------------------|
-----3--3--3--3--3--3-----|-----3--3--3--3--3--3--3--|
--------------------------|--4-----------------------|
--------------------------|--------------------------|

--------------------------|--------------------------|
--3--3--3--3--3--3--3--3--|--3--3--3--3--3--3--3--3--|
--------------------------|--------------------------|
--------------------------|--------------------------|
                                      
--------------------------|--------------------------|
--3--3--3--3--3--3--3--3--|-----3--3--3--3--3--3--3--|
--------------------------|--4-----------------------|
--------------------------|--------------------------|

--------------------------|--------------------------|---------------------|
--3--3--3--3--3--3--3--3--|-----3--3--3--3-----------|---------------------|
--------------------------|--4--------------------4--|------------------1--|
--------------------------|-----------------0--0-----|---------------------|
                                      
--------------------------|--------------------------|
--------------------------|--------------------------|
--------------------------|--------------------------|
--4--4--4--4--4--4--4--4--|--4--4--4--4--4-----0-----|
                                      
--------------------------|--------------------------|
--------------------------|--------------------------|
--4-----------------------|-----------------------1--|
-----4--0--4--4--4-----4--|--4--4-----4--4--4--------|
                                      
--------------------------|--------------------------|
--------------------------|--------------------------|
--------------------------|-----------------------1--|
--4--4-----4--4--4-----4--|--4--4-----4--4--4--------|
            
--------------------------|--------------------------|
--------------------------|--------------------------|
--------------------------|-----------------------1--|
--4--4-----4--4--4-----4--|--4--4-----4--4--4--------|
                                      
--------------------------|--------------------------|
--------------------------|--------------------------|
--4-----------------------|-----------------------1--|
-----4-----4--4--4-----4--|--4--4-----4--4--4--------|

--------------------------|--------------------------|
--------------------------|--------------------------|
--------------------------|-----------------------1--|
--4--4-----4--4--4-----4--|--4--4-----4--4--4--------|

--------------------------|--------------------------|
--------------------------|--------------------------|
--------------------------|-----------------------1--|
--4--4-----4--4--4-----4--|--4--4-----4--4--4--------|
                                      
--------------------------|--------------------------|
--------------------------|--------------------------|
--------------------------|-----------------------1--|
--4--4-----4--4--4-----4--|--4--4-----4--4--4--------|
                                      
--------------------------|--------------------------|
--------------------------|--------------------------|
--4-----------------------|-----------------------1--|
-----4-----4--4--4-----4--|--4--4-----4--4--4--------|
                                      
--------------------------|--------------------------|
--------------------------|--------------------------|
--------------------------|--------------------------|
--4--4-----4--4--4-----4--|--4--4-----4--0-----0--0--|
                                      
--------------------------|--------------------------|
-----3--3--3--3--3--3--3--|--3--3--3--3--3--3--3--3--|
--4-----------------------|--------------------------|
--------------------------|--------------------------|
                                      
--------------------------|--------------------------|
--3--3--3--3--3--3--3--3--|--3--3--3--3--3--3--3--3--|
--------------------------|--------------------------|
--------------------------|--------------------------|
                                      
--------------------------|--------------------------|
-----3--3--3--3--3--3--3--|--3--3--3--3--3--3--3--3--|
--4-----------------------|--------------------------|
--------------------------|--------------------------|
                                      
--------------------------|--------------------------|
-----3--3--3--3-----------|-----3--3--3--3--3--3-----|
--4--------------------4--|--------------------------|
--------------------------|--------------------------|
                                      
--------------------------|--------------------------|
-----3--3--3--3--3--3--3--|--3--3--3--3--3--3--3--3--|
--4-----------------------|--------------------------|
--------------------------|--------------------------|
                                      
--------------------------|--------------------------|
--3--3--3--3--3--3--3--3--|--3--3--3--3--3--3--3--3--|
--------------------------|--------------------------|
--------------------------|--------------------------|
                                      
--------------------------|--------------------------|
-----3--3--3--3--3--3--3--|--3--3--3--3--3--3--3--3--|
--4-----------------------|--------------------------|
--------------------------|--------------------------|

--------------------------|--------------------------|
-----3--3--3--3-----------|--------------------------|
--4--------------------4--|--------------------------|
-----------------0--0-----|--------0--0--------0--0--|
                                      
--------------------------|--------------------------|
--------------------------|--------------------------|
--4-----------------------|-----------------------1--|
-----4--0--4--4--4-----4--|--4--4-----4--4--4--------|
                                      
--------------------------|--------------------------|
--------------------------|--------------------------|
--4-----------------------|-----------------------1--|
-----4-----4--4--4-----4--|--4--4-----4--4--4--------|
                                      
--------------------------|--------------------------|
--------------------------|--------------------------|
--4-----------------------|-----------------------1--|
-----4-----4--4--4-----4--|--4--4-----4--4--4--------|
                                      
--------------------------|--------------------------|
--------------------------|--------------------------|
--4-----------------------|-----------------------1--|
-----4-----4--4--4-----4--|--4--4-----4--4--4--------|
                    
--------------------------|--------------------------|
--------------------------|--------------------------|
--4-----------------------|-----------------------1--|
-----4-----4--4--4-----4--|--4--4-----4--4--4--------|

--------------------------|--------------------------|---------------------|
--------------------------|--------------------------|---------------------|
--4-----1-----1-----1--4--|--------1-----------2--0--|--4------------------|
-----------------0--------|--------------0--3--------|---------------------|

-----------------------|---------------------|--------------------------|
-----------------------|---------------------|--------------------------|
-----------------------|--4------------------|-----3--0-----------------|
--------------3--1-----|---------------------|--------------7--3--------|

---------------------|--------------------------|---------------------|
---------------------|--------------------------|---------------------|
--4------------------|--4--------4--------4-----|--4------------------|
---------------------|--0--------0--------0-----|---------------------|

--------------------------|--------------------------|
--------------------------|--------------------------|
--------------------4-----|--4-----------------------|
--3--3--3--3--3-----0-----|-----4--0--4--4--4-----4--|
                                      
--------------------------|--------------------------|
--------------------------|--------------------------|
-----------------------1--|--4-----------------------|
--4--4-----4--4--4--------|-----4-----4--4--4-----4--|

--------------------------|--------------------------|
--------------------------|--------------------------|
-----------------------1--|--4-----------------------|
--4--4-----4--4--4--------|-----4-----4--4--4-----4--|

--------------------------|--------------------------|
--------------------------|--------------------------|
-----------------------1--|--4-----------------------|
--4--4-----4--4--4--------|-----4-----4--4--4-----4--|
                                      
--------------------------|--------------------------|
--------------------------|--------------------------|
-----------------------1--|--4-----------------------|
--4--4-----4--4--4--------|-----4-----4--4--4-----4--|
                                     
--------------------------|--------------------------|
--------------------------|--------------------------|
-----------------------1--|--4-----1-----1-----1--4--|
--4--4-----4--4--4--------|-----------------0--------|

--------------------------|--------------------------|---------------------|
--------------------------|--------------------------|---------------------|
--------1-----1-----1--1--|--4--3-----0--0-----------|---------------------|
--------------------------|--------------------3--1--|--0------------------|

--------------------------|--------------------------|
-----3--3--3--3--3--3--3--|--3--3--3--3--3--3--3--3--|
--4-----------------------|--------------------------|
--------------------------|--------------------------|

--------------------------|--------------------------|
--3--3--3--3--3--3--3--3--|--3--3--3--3--3--3--3--3--|
--------------------------|--------------------------|
--------------------------|--------------------------|

--------------------------|--------------------------|
-----3--3--3--3--3--3--3--|--3--3--3--3--3--3--3--3--|
--4-----------------------|--------------------------|
--------------------------|--------------------------|

--------------------------|--------------------------|
-----3--3--3--3-----------|-----3--3--3--3--3--3-----|
--4--------------------4--|--------------------------|
-----------------0--0-----|-----------------------0--|
                                    
--------------------------|--------------------------|
-----3--3--3--3--3--3--3--|--3--3--3--3--3--3--3--3--|
--4-----------------------|--------------------------|
--------------------------|--------------------------|

--------------------------|--------------------------|
--3--3--3--3--3--3--3--3--|--3--3--3--3--3--3--3--3--|
--------------------------|--------------------------|
--------------------------|--------------------------|

--------------------------|--------------------------|
-----3--3--3--3--3--3--3--|--3--3--3--3--3--3--3--3--|
--4-----------------------|--------------------------|
--------------------------|--------------------------|

--------------------------|--------------------------|
-----3--3--3--3-----------|--------------------------|
--4--------------------4--|--------------------------|
--------------------------|--------0--0--------0--0--|

--------------------------|--------------------------|
-----3--3--3--3--3--3--3--|--3--3--3--3--3--3--3--3--|
--4-----------------------|--------------------------|
--------------------------|--------------------------|

--------------------------|--------------------------|
--3--3--3--3--3--3--3--3--|--3--3--3--3--3--3--3--3--|
--------------------------|--------------------------|
--------------------------|--------------------------|

--------------------------|--------------------------|
-----3--3--3--3--3--3--3--|--3--3--3--3--3--3--3--3--|
--4-----------------------|--------------------------|
--------------------------|--------------------------|

--------------------------|--------------------------|
-----3--3--3--3-----------|-----3--3--3--3-----------|
--4--------------------4--|--------------------------|
--------------------------|--------------------------|

--------------------------|--------------------------|
-----3--3--3--3--3--3--3--|--3--3--3--3--3--3--3--3--|
--4-----------------------|--------------------------|
--------------------------|--------------------------|

--------------------------|--------------------------|
--3--3--3--3--3--3--3--3--|--3--3--3--3--3--3--3--3--|
--------------------------|--------------------------|
--------------------------|--------------------------|

--------------------------|--------------------------|
-----3--3--3--3--3--3--3--|--3--3--3--3--3--3--3--3--|
--4-----------------------|--------------------------|
--------------------------|--------------------------|

--------------------------|--------------------------|
-----3--3--3--3-----------|-----3--3--3--3-----------|
--4--------------------4--|--------------------------|
--------------------------|--------------------------|

--------------------------|--------------------------|
-----3--2--3--3--3--3--3--|--3--3--3--3--3--3--3--3--|
--4-----------------------|--------------------------|
--------------------------|--------------------------|
                                      
--------------------------|--------------------------|
--3--3--3--3--3--3--3--3--|--3--3--3--3--3--3--3--3--|
--------------------------|--------------------------|
--------------------------|--------------------------|

--------------------------|--------------------------|
-----3--3--3--3--3--3--3--|--3--3--3--3--3--3--3--3--|
--4-----------------------|--------------------------|
--------------------------|--------------------------|
                                      
--------------------------|--------------------------|
-----3--3--3--3-----------|-----3--3--3--3-----------|
--4--------------------4--|-----------------5--------|
--------------------------|-----------------------8--|
                                      
--------------------------|--------------------------|
-----3--2--3--3--3--3--3--|--3--3--3--3--3--3--3--3--|
--4-----------------------|--------------------------|
--------------------------|--------------------------|
                                      
--------------------------|--------------------------|
--3--3--3--3--3--3--3--3--|--3--3--3--3--3--3--3--3--|
--------------------------|--------------------------|
--------------------------|--------------------------|

--------------------------|--------------------------|
-----3--3--3--3--3--3--3--|--3--3--3--3--3--3--3--3--|
--4-----------------------|--------------------------|
--------------------------|--------------------------|

--------------------------|--------------------------|
-----3--3--3--3-----------|--------------------------|
--4--------------------4--|--------5-----------------|
-----------------0--0-----|--0-----------8-----7-----|

--------------------------|--------------------------|
-----3-----3--3--3--3--3--|--3--3--3--3--3--3--3--3--|
--4-----4-----------------|--------------------------|
--------------------------|--------------------------|

--------------------------|--------------------------|
--3--3--3--3--3--3--3--3--|--3--3--3--3--3--3--------|
--------------------------|--------------------3--0--|
--------------------------|--------------------------|

--------------------------|--------------------------|
-----3--3--3--3--3--3--3--|--3--3--3--3--3--3--3--3--|
--4-----------------------|--------------------------|
--------------------------|--------------------------|
                                                        
--------------------------|--------------------------|---------------------|
--------------------------|--------------------------|---------------------|
--4-----4-----4-----4-----|--4-----4-----4-----4-----|--4------------------|
--------------------------|--------------------------|---------------------|
exibições 217
Colaboração e revisão:
  • Mansinho Jr.

0 comentários

mostrar mais comentários

Conseguiu tocar?

0 tocaram 0 ainda não

Grave um vídeo tocando Message Of Love e mande pra gente!

00:00 / 00:00
outros vídeos desta música
repetir qualidade Automático
Outros vídeos desta música
00:00 / 00:00
Automático
OK