Cifra Club

Aprenda

Never Walk Away

Journey

Tab de baixo: Principal
Intro:
G|--------|--------|--------|--------|--------|--------|--------|--------|
D|--------|--------|--------|--------|--------|--------|--------|--------|
A|--------|--------|--------|--------|7~777777|6x4x2x2x|0-042-20|--020---|
E|--------|--------|--------|--------|--------|--------|--------|4-----42|
                         
G|--------|--------|--------|--------|--------|--------|--------|--------|
D|--------|--------|--------|--------|--------|--------|--------|-2--2-12|
A|--------|------02|4~444444|44444024|00000000|22222242|--------|--------|
E|0~000000|000000--|--------|--------|--------|--------|0~000000|0-00-0--|

Verso:
(So much in love...)
G|--------|--------|--------|--------|--------|--------|--------|--------|
D|--------|--------|--------|--------|--------|--------|--------|--------|
A|--------|--------|00000000|000000-2|4~444444|44444464|0~000000|2222220-|
E|0-000000|00000024|--------|------2-|--------|--------|--------|-------2|
                           
G|--------|--------|--------|--------|--------|--------|--------|--------|--------|
D|--------|--------|--------|--------|--------|--------|--------|------2/|9999999|
A|--------|--------|00000000|0-00-02/|4~444444|44444464|0~000000|222222--|--------|
E|0-000000|00000024|--------|-2--2---|--------|--------|--------|--------|--------|

Refrão:
(Will She Go...)                         
G|--------|--------|--------|--------|--------|--------|--------|--------|
D|--------|--------|--------|-------0|2-222222|22222242|--------|0-000---|
A|--------|------02|33333333|3333333-|--------|--------|3-333333|--------|
E|33333333|333333--|--------|--------|--------|--------|--------|-----023|
                         
G|--------|--------|--------|--------|--------|--------|--------|--------|
D|22222222|22222222|22222222|22222222|--------|--------|--------|--------|
A|--------|--------|--------|--------|44444444|44464444|44444444|44444446|
E|--------|--------|--------|--------|--------|--------|--------|--------|
                         
G|--------|--------|--------|--------|--------|--------|--------|--------|
D|--------|--------|--------|-------0|2-222222|22222242|--------|--------|
A|--------|------02|33333333|3333333-|--------|--------|3-333333|5-555555|
E|33333333|333333--|--------|--------|--------|--------|--------|--------|
                         
G|--------|--------|--------|--------|--------|--------|--------|--------|
D|22222222|22222222|22222222|22222222|--------|--------|--------|--------|
A|--------|--------|--------|--------|44444444|44464444|44444444|44444446|
E|--------|--------|--------|--------|--------|--------|--------|--------|
               
G|--------|--------|--------|--------|
D|--------|--------|--------|--------|
A|7~777777|6x4x2x2x|0-042-20|--020---|
E|--------|--------|--------|4-----42|

(Verso)

(Refrão)

Ponte:                  
G|--------|-4---4--|--------|--------|--------|------2-|
D|--------|--------|--------|-6---6--|--------|--------|
A|2-222222|2-222-20|--------|--------|00000000|000000-0|
E|--------|--------|4-444444|4-444-44|--------|--------|
         
G|--------|--------|
D|--------|--------|
A|--------|------4-|
E|0-000000|0-2-4---|
          
G|--------|--------|--------|
D|--------|--------|--------|
A|--------|--------|--------|
E|0-000000|2-222222|22222222|

Refrão:                         
G|--------|--------|--------|--------|--------|--------|--------|--------|
D|--------|--------|--------|-------0|2-222222|22222242|--------|--------|
A|--------|------02|33333333|3333333-|--------|--------|3-333333|5-555555|
E|33333333|333333--|--------|--------|--------|--------|--------|--------|
                         
G|--------|--------|--------|--------|--------|--------|--------|--------|
D|22222222|22222222|22222222|22222222|--------|--------|--------|--------|
A|--------|--------|--------|--------|44444444|44464444|44444444|444444--|
E|--------|--------|--------|--------|--------|--------|--------|------02|

Solo:                         
G|--------|--------|--------|--------|--------|--------|--------|--------|
D|--------|--------|--------|--------|--------|--------|--------|--------|
A|--------|------02|--------|--------|--------|--------|33333333|5555555|
E|33333333|333333--|0-000000|00000000|11111111|11111111|--------|--------|
                         
G|--------|--------|--------|--------|--------|--------|--------|--------|
D|--------|--------|--------|--------|--------|--------|--------|--------|
A|--------|------02|--------|--------|--------|--------|33333333|55555555|
E|3-333333|333333--|0-000000|00000000|11111111|11111111|--------|--------|
                           
G|--------|--------|--------|--------|--------|--------|--------|--------|--------|
D|--------|--------|--------|--------|--------|--------|--------|--------|--------|
A|7~777777|6x4x2x2x|0-042-20|--020---|7~777777|6x4x2x2x|0-042-20|--020---|--------|
E|--------|--------|--------|4-----42|--------|--------|--------|4-----42|0~~~~~~~|
Colaboração e revisão:
  • Mansinho Jr.
83 exibições

0 comentários

Mostrar mais comentários

Conseguiu tocar?

0 Tocaram 0 Ainda não

Grave um vídeo tocando Never Walk Away e mande pra gente!

00:00 / 00:00
outros vídeos desta música
repetir qualidade Automático
Outros vídeos desta música
00:00 / 00:00
Automático

Cifra Club Pro

Aproveite o Cifra Club com benefícios exclusivos e sem anúncios
7 dias grátis
Cifra Club Pro
Aproveite o Cifra Club com benefícios exclusivos e sem anúncios
7 dias grátis
OK