Cifra Club

Aprenda

Stone In Love

Journey

Tab de baixo: Principal
Intro:
G|----|----------|------------|------------|-----------------|
D|----|----------|--------4---|--------2---|-----------------|
A|----|------2-3-|-5--------5-|-3--------3-|-2-----2h3-2p0---|
E|--15/3---------|------------|------------|---------------2-|

G|----------|------------|------------|-------------------|
D|----------|--------4---|--------2---|-------------------|
A|------2-3-|-5--------5-|-3--------3-|-2-2-2--2--2-2-3-4-|
E|3---------|------------|------------|-------------------|

Refrão:
G|----------------|----5-4-2---2-4----|----------------|---------------|
D|----------------|----------5--------|----------4-5---|---------------|
A|-5--5-5-5-5-5-5-|-5---------------3-|-3-3-3-3--------|-------3-----5-|
E|----------------|-------------------|--------------3-|-3-3-----3-----|

G|---------------|---5-4-2---2-4---|---------------------|
D|---------------|---------5-------|---------------7-5---|
A|-5-5-5-5-5-5-5-|-5-------------3-|-3-3-3-3--5/7--------|
E|---------------|-----------------|-------------------3-|

Solo:
G|----|----------|------------|------------|-----------------|
D|----|----------|--------4---|--------2---|----4-5----------|
A|----|------2-3-|-5--------5-|-3--------3-|-2-----2h3-2p0---|
E|--15/3---------|------------|------------|---------------2-|

Verso:
G|----|----------|------------|------------|-----------------|
D|----|----------|--------4---|--------2---|-----------------|
A|----|------2-3-|-5--------5-|-3--------3-|-2-----2h3-2p0---|
E|--15/3---------|------------|------------|---------------2-|

G|----------|------------|------------|-------------------|
D|----------|--------4---|--------2---|-------------------|
A|------2-3-|-5--------5-|-3--------3-|-2-2-2--2--2-2-3-4-|
E|3---------|------------|------------|-------------------|

(Refrão)

Solo 2:
G|----|----------|------------|------------|-----------------|
D|----|----------|--------7---|--------5---|-----------------|
A|----|------2-3-|-5--------5-|-3--------3-|-2-----2h3-2p0---|
E|--15/3---------|------------|------------|---------------2-|

G|----------|------------|------------|-----------------|-------------------|
D|----------|--------7---|--------5---|-----------------|-------------------|
A|------2-3-|-5--------5-|-3--------3-|-2-2---2---2-3-4-|-------------------|
E|3---------|------------|------------|-----------------|-3-----------------|

(Refrão)

G|---------|---------------|-----------------|-----------------|----------|
D|---------|---------------|-----------------|-----------------|--------5-|
A|---------|---------------|-----------------|-----------------|----------|
E|-3----3--|-3-3-3-3-3-3-3-|-3-3-3-3-3-3-3-3-|-3-3-3-3-3-3-3-3-|-3-3-3----|

G|---------------|------------------|-------------2-|---4-----------3-|-----------------|--------|
D|---------------|-----------------5\--------------|-----------------|---------------3-|-------5|
A|---------------|--------------5---|---------------|-----------------|-----------------|--------|
E|-3-3-3-3-3-3-3-|-3-3-3-3-3-5-----|-3-3-3-3-3-3---|-3---3-3-3-3-3---|-3-3-3-3-3-3-3---|-3-3-3--|

G|------------|----------------|-------------2-|---4-----------3-|-----------------|---------|
D|------------|---------------5\--------------|---------5-------|-----5---------3-|-----5-5-|
A|------------|-------------5--|---------------|-----------------|---6-------------|--/3-----|
E|-3-3--3-3-3-|-3-3-3-3-3-5----|-3-3-3-3-3-3---|-3---3-3---3-3---|-3-----3-3-3-3---|-3-------|

G|----------------|-----------------|-------------2-|---4------------3-|
D|----------------|----------------5\--------------|---------5-5-5----|
A|----------------|-------------/5--|---------------|------------------|
E|-3-3-3-/3-3-3-3-|-3-3-3-3-3-5-----|-3-3-3-3-3-3---|-3---3-3----------|

G|-----------------|----------|----------------|--------------2-3-|-----2-------/4-|
D|---------------3-|--------5-|----------------|---------/3-5-----|-----------5----|
A|---6-------------|---3------|----------------|------------------|----------------|
E|-3---3-3-3-3-3---|-3---3----|-3-3-3-/3-3-3-3-|-3-3-3-3----------|----------------|

G|-------------|-----------------|-----------|--------------|---------------2--3-|
D|-------------|-----------------|-----------|--------------|---------3--5-------|
A|-----5-6-8-6-|--6-6-5---8--5---|---5-------|--------------|--------------------|
E|-------------|---------------8-|-8---8-7b--|-3-3--3-3-3-3-|-3-3-3--------------|

G|-----2-------|--------------|------------------|----------|-----------------|
D|--------3--0-|--------------|------------------|----------|-----------------|
A|-------------|------5-6-8-6-|----6-6-----------|----------|-----------------|
E|-------------|--------------|--------6---6-6-5-|--3--1--3-|-3-3-3-3-3-3-3-3-|

G|--------------2-3-|--2----/4-|--------7-8-|-10-8-7--10-7-5-|--7-5-4-|-4-----------------------|
D|---------3-5------|-----5----|---9-10-----|----------------|--------|--------------------------|
A|------------------|----------|------------|----------------|--------|------------------5-5-5-5-|
E|-3-3-3-3----------|----------|------------|----------------|--------|---3-3--3-2/3-3-3-3-3-3-3-|

G|--------------2--3-|----2----/4-|-----------7-8-|-10-8-7--10-7-5-|--7-5-4-|
D|---------3--5------|-------5----|------9-10-----|----------------|--------|
A|-------------------|------------|---------------|----------------|--------|
E|-3-3-3-3-----------|------------|---------------|----------------|--------|

G|-------------------|------------------|-------------2-|---4------------3|
D|-----5-5-5-3-4-5---|--5-5-5-5-------5-|---------------|--------------5---|
A|-------------------|--------------5---|---------------|------------------|
E|-3-3-------------3-|----------5/7-----|-3-3-3-3-3-3---|-3---3-3-3-3------|

G|-------------|-----------|-----------------|-----------------------|
D|-1---------3-|---------5-|-----------------|-------------5-------5-|
A|-------------|----3------|-----------------|-------------------5---|
E|---3-3-3-3---|--3---3----|-3-3-3-3-3-3-3-3-|-3-3-3-3-3-3---5/7-----|

G|-------------2-|----4---------------3-|-----------------|-----------|
D|-----------5---|---------5------------|---------------3-|---------5-|
A|---------------|----------------------|---6-------------|----3------|
E|-3-3-3-3-3-----|-3-----3----3-3-3-3---|-3---3-3-3-3-3---|--3---3----|

G|---------------12\------------------|---------------2-|---4------------------------|
D|-----------------|-------5-5-------5-\----------------|----------------------------|
A|-----------------|---------------5---|-----------------|---------5-6-8-6------------|
E|-3-3-3-3-3-3-3---|-3-3-3-----5/7-----|-3-3-3-3-3-3-3---|-3---3-3--------------------|
Composição de J. Cain / N. Schon / S. Perry
Colaboração e revisão:
  • Mansinho Jr.
168 exibições

0 comentários

Mostrar mais comentários

Conseguiu tocar?

0 Tocaram 0 Ainda não

Grave um vídeo tocando Stone In Love e mande pra gente!

00:00 / 00:00
outros vídeos desta música
repetir qualidade Automático
Outros vídeos desta música
00:00 / 00:00
Automático

Cifra Club Pro

Aproveite o Cifra Club com benefícios exclusivos e sem anúncios
7 dias grátis
Cifra Club Pro
Aproveite o Cifra Club com benefícios exclusivos e sem anúncios
7 dias grátis
OK