Cifra Club

Aprenda

Wheel In The Sky

Journey

Cifra: Principal (violão e guitarra)
Tom: F
E|-----------------------------|----------------------------|
B|--6--------8--10------8------|--5--------5--6h5----3h5----|
G|-----7------------10-----10--|-----5------------5------5--|
D|--------7--------------------|--------5-------------------|
A|--5--------7--8--------------|--3-------------------------|
E|-----------------------------|----------------------------|

E|-----------------------------|--8--------8--10h8------------|
B|--6--------8--10------8------|-----8-------------8--10h8----|
G|-----7------------10-----10--|--------9------------------9--|
D|--------7--------------------|------------------------------|
A|--5--------7--8--------------|------------------------------|
E|-----------------------------|--8---------------------------|

E|-----------------------------|----------------------------|-------------------|
B|--6--------8--10------8------|--5--------5--6h5-----------|--3----------------|
G|-----7------------10-----10--|-----5------------5---------|--3----------------|
D|--------7--------------------|--------5------------5--5/3-|--3----------------|
A|--5--------7--8--------------|--3-------------------------|--1----------------|
E|-----------------------------|----------------------------|-------------------|

E|---------------------|-------------------------------|
B|---------------------|-----3---3-3-3-3---3-3---------|
G|---------------------|-----2---2-2-2-0h2-2-2---------|
D|------------------3~-|--0------------------------0-3-|
A|--------------0-3----|-----------------------0-3-----|
E|---------------------|-------------------------------|

E|-----------------------------|-------------------------------|
B|-----3---3-3-3-3----3--------|-----3---3-3-3-3---3-3---------|
G|-----2---2-2-2-0h2--2--------|-----2---2-2-2-0h2-2-2---------|
D|--0-----------------------3~-|--0------------------------0-3-|
A|----------------------0-3----|-----------------------0-3-----|
E|-----------------------------|-------------------------------|

E|-----------------------------|-------------------------------|
B|-----3---3-3-3-3----3--------|-----3---3-3-3-3---3-3---------|
G|-----2---2-2-2-0h2--2--------|-----2---2-2-2-0h2-2-2---------|
D|--0-----------------------3~-|--0------------------------0-3-|
A|----------------------0-3----|-----------------------0-3-----|
E|-----------------------------|-------------------------------|

E|-----------------------------|-------------------------------|
B|-----3---3-3-3-3----3--------|-----3---3-3-3-3---3-3---------|
G|-----2---2-2-2-0h2--2--------|-----2---2-2-2-0h2-2-2---------|
D|--0-----------------------3~-|--0------------------------0-3-|
A|----------------------0-3----|-----------------------0-3-----|
E|-----------------------------|-------------------------------|

E|------------------------------|-------------------|-------------------------|
B|-----3---3-3-3-3--5-5-5-5-5-5-|--5----------------|--3------------0-----2---|
G|-----2---2-2-2-2--5-5-5-5-5-5-|--5----------------|--3----------0h2-----4h2-|
D|--0------------0--5-5-5-5-5-5-|--5----------------|--3--------------0h3-----|
A|------------------3-3-3-3-3-3-|--3----------------|--1----------------------|
E|------------------------------|-------------------|-------------------------|

E|------------------------------|------------------------------|
B|-----3----3-3-3-3-3-3-3-------|-----3-3--3-3-3-3---3-3-3--3--|
G|-----0h2--2-2-2-2-2-2-2----0--|-----0h2--2-2-2-0h2-2-2-2--2--|
D|--0------------------------3--|--0---------------------0--0--|
A|------------------------3-----|------------------------3-----|
E|------------------------------|------------------------------|

E|-------------------------------|-----------------------------|
B|-----3---3-3-3-3---3-3---------|-----3---3-3-3-3----3--------|
G|-----2---2-2-2-0h2-2-2---------|-----2---2-2-2-0h2--2--------|
D|--0------------------------0-3-|--0-----------------------3~-|
A|-----------------------0-3-----|----------------------0-3----|
E|-------------------------------|-----------------------------|

E|-------------------------------|------------------0------|-------------------|
B|-----3---3-3-3-3---3-3---------|-----3---3-3-3-3---------|--5----------------|
G|-----2---2-2-2-0h2-2-2---------|-----2---2-2-2-2---------|--5----------------|
D|--0------------------------0-3-|--0------------0---------|--5----------------|
A|-----------------------0-3-----|-------------------------|--3----------------|
E|-------------------------------|-------------------------|-------------------|

E|-------------------------|-----------------------------|---------------------|
B|--3------------0-----2---|-----3---3-3-3-3----3--------|--3----3--3----------|
G|--3----------0h2-----4h2-|-----2---2-2-2-0h2--2--------|--2----2--2----------|
D|--3--------------0h3-----|--0-----------------------3~-|--0----0--0----------|
A|--1----------------------|----------------------0-3----|---------------------|
E|-------------------------|-----------------------------|---------------------|

E|-------------------------|----------------------|-------------------------|
B|-------------------------|----------------------|-------------------------|
G|--7----7--9--10----10/---|--5----5----5----5----|--7----7--9--10----10/---|
D|--7----7--9--10----10/---|--5----5----5----5----|--7----7--9--10----10/---|
A|--5----5--7--8-----8/----|--3----3----3----3----|--5----5--7--8-----8/----|
E|-------------------------|----------------------|-------------------------|

E|--------------------------|-------------------------|----------------------|
B|--------------------------|-------------------------|----------------------|
G|--5----5----5--5-5-5-5-5--|--7----7--9--10----10/---|--5----5----5---------|
D|--5----5----5--5-5-5-5-5--|--7----7--9--10----10/---|--5----5----5---------|
A|--3----3----3--3-3-3-3-3--|--5----5--7--8-----8/----|--3----3----3------0--|
E|--------------------------|-------------------------|----------------------|

E|---------------------|----------------------|-------------------------------|
B|--3----3-------------|--3-------------------|-----3---3-3-3-3---3-3---------|
G|--0----0-------------|--3-------------------|-----2---2-2-2-0h2-2-2---------|
D|--0----0-------------|--3----------------3~-|--0------------------------0-3-|
A|--2----3/---------1--|--1------------0-3----|-----------------------0-3-----|
E|---------------------|----------------------|-------------------------------|

E|-----------------------------|-------------------------------|
B|-----3---3-3-3-3----3--------|-----3---3-3-3-3---3-3---------|
G|-----2---2-2-2-0h2--2--------|-----2---2-2-2-0h2-2-2---------|
D|--0-----------------------3~-|--0------------------------0-3-|
A|----------------------0-3----|-----------------------0-3-----|
E|-----------------------------|-------------------------------|

E|-----------------------------|-------------------------------|
B|-----3---3-3-3-3----3--------|-----3---3-3-3-3---3-3---------|
G|-----2---2-2-2-0h2--2--------|-----2---2-2-2-0h2-2-2---------|
D|--0-----------------------3~-|--0------------------------0-3-|
A|----------------------0-3----|-----------------------0-3-----|
E|-----------------------------|-------------------------------|

E|-----------------------------|-------------------|-------------------------|
B|-----3---3-3-3-3----3--------|--5----------------|--3------------0-----2---|
G|-----2---2-2-2-0h2--2--------|--5----------------|--3----------0h2-----4h2-|
D|--0-----------------------3~-|--5----------------|--3--------------0h3-----|
A|----------------------0-3----|--3----------------|--1----------------------|
E|-----------------------------|-------------------|-------------------------|

E|------------------------------|------------------------------|
B|-----3----3-3-3-3-3-3-3-------|-----3-3--3-3-3-3---3-3-3--3--|
G|-----0h2--2-2-2-2-2-2-2----0--|-----0h2--2-2-2-0h2-2-2-2--2--|
D|--0------------------------3--|--0---------------------0--0--|
A|------------------------3-----|------------------------3-----|
E|------------------------------|------------------------------|

E|-------------------------------|-----------------------------|
B|-----3---3-3-3-3---3-3---------|-----3---3-3-3-3----3--------|
G|-----2---2-2-2-0h2-2-2---------|-----2---2-2-2-0h2--2--------|
D|--0------------------------0-3-|--0-----------------------3~-|
A|-----------------------0-3-----|----------------------0-3----|
E|-------------------------------|-----------------------------|

E|-------------------------------|-----------------------------|
B|-----3---3-3-3-3---3-3---------|-----3---3-3-3-3----3--------|
G|-----2---2-2-2-0h2-2-2---------|-----2---2-2-2-0h2--2--------|
D|--0------------------------0-3-|--0-----------------------3~-|
A|-----------------------0-3-----|----------------------0-3----|
E|-------------------------------|-----------------------------|

E|-------------------|-------------------------|------------------------------|
B|--5----------------|--3------------0-----2---|-----3----3-3-3-3-3-3-3-------|
G|--5----------------|--3----------0h2-----4h2-|-----0h2--2-2-2-2-2-2-2----0--|
D|--5----------------|--3--------------0h3-----|--0------------------------3--|
A|--3----------------|--1----------------------|------------------------3-----|
E|-------------------|-------------------------|------------------------------|

E|------------------------------|-------------------------|----------------------|
B|-----3-3--3-3-3-3---3-3-3--3--|-------------------------|----------------------|
G|-----0h2--2-2-2-0h2-2-2-2--2--|--7----7--9--10----10/---|--5----5----5----5----|
D|--0---------------------0--0--|--7----7--9--10----10/---|--5----5----5----5----|
A|------------------------3-----|--5----5--7--8-----8/----|--3----3----3----3----|
E|------------------------------|-------------------------|----------------------|

E|-------------------------|--------------------------|-------------------------|
B|-------------------------|--------------------------|-------------------------|
G|--7----7--9--10----10/---|--5----5----5--5-5-5-5-5--|--7----7--9--10----10/---|
D|--7----7--9--10----10/---|--5----5----5--5-5-5-5-5--|--7----7--9--10----10/---|
A|--5----5--7--8-----8/----|--3----3----3--3-3-3-3-3--|--5----5--7--8-----8/----|
E|-------------------------|--------------------------|-------------------------|

E|----------------------|---------------------|-------------------|
B|----------------------|--3----3-------------|--3----------------|
G|--5----5----5---------|--0----0-------------|--3----------------|
D|--5----5----5---------|--0----0-------------|--3----------------|
A|--3----3----3------0--|--2----3/---------1--|--1----------------|
E|----------------------|---------------------|-------------------|

E|---------------------|--------------------|----------|
B|--3----3-------------|--3--------3--------|----------|
G|--0----0-------------|--3--------3--------|----------|
D|--0----0-------------|--3--------3--------|----------|
A|--2----3/---------1--|--1--------1--------|----------|
E|---------------------|--------------------|----------|

E|------------------------------|------------------------------|
B|--3---3-3-3--3---3-3-3--3--3--|--3---3-3-3--3---3-3-3--3--3--|
G|--0h2-2-2-2--0h2-2-2-2--0--0--|--0h2-2-2-2--0h2-2-2-2--0--0--|
D|--0----------0---0-0-0--0--0--|--0----------0---0-0-0--0--0--|
A|------------------------------|------------------------------|
E|------------------------------|------------------------------|

E|------------------------------|----------------------------|
B|--3---3-3-3--3---3-3-3--3--3--|--1--1-1-1--1-1-3h1---1--1--|
G|--0h2-2-2-2--0h2-2-2-2--0--0--|--0--0-0-0--0-0-0-----0--0--|
D|--0----------0---0-0-0--0--0--|--0------x------x-----x--x--|
A|------------------------------|--3------3------3-----3--3--|
E|------------------------------|----------------------------|

E|------------------------------|----------------------------|
B|--3---3-3-3--3---3-3-3--3--3--|--1--1-1-1--1-1-3h1---1--1--|
G|--0h2-2-2-2--0h2-2-2-2--0--0--|--0--0-0-0--0-0-0-----0--0--|
D|--0----------0---0-0-0--0--0--|--0------x------x-----x--x--|
A|------------------------------|--3------3------3-----3--3--|
E|------------------------------|----------------------------|

E|------------------------------|----------------------------|
B|--3---3-3-3--3---3-3-3--3--3--|--1--1-1-1--1-1-3h1---1--1--|
G|--0h2-2-2-2--0h2-2-2-2--0--0--|--0--0-0-0--0-0-0-----0--0--|
D|--0----------0---0-0-0--0--0--|--0------x------x-----x--x--|
A|------------------------------|--3------3------3-----3--3--|
E|------------------------------|----------------------------|

E|------------------------|-------------------------|---------------------|
B|--3--3------3--1--1--1--|-----3----3-3-3-----1----|--3--------3---------|
G|--3--3------3--0--0--0--|-----2----0-0-0h2---0----|--3--------3---------|
D|--3--3------3-----------|--0-----------0-----0----|--3--------3---------|
A|--1--1------1-----------|--------------------3----|--1--------1----3----|
E|------------------------|-------------------------|---------------------|

E|-------------------------|-------------------|------------|
B|-----3----3-3-3----3-----|-------------------|----3--3----|
G|-----2----2-2-2----2h0---|--0~---------------|----0--0----|
D|--0-----------0----0-----|--0~---------------|----0--0----|
A|-------------------------|--1~---------------|------------|
E|-------------------------|-------------------|------------|

E|-------------------------|----------------------|-------------------------|
B|-------------------------|----------------------|-------------------------|
G|--7----7--9--10----10/---|--5----5----5----5----|--7----7--9--10----10/---|
D|--7----7--9--10----10/---|--5----5----5----5----|--7----7--9--10----10/---|
A|--5----5--7--8-----8/----|--3----3----3----3----|--5----5--7--8-----8/----|
E|-------------------------|----------------------|-------------------------|

E|--------------------------|-------------------------|----------------------|
B|--------------------------|-------------------------|----------------------|
G|--5----5----5--5-5-5-5-5--|--7----7--9--10----10/---|--5----5----5----5----|
D|--5----5----5--5-5-5-5-5--|--7----7--9--10----10/---|--5----5----5----5----|
A|--3----3----3--3-3-3-3-3--|--5----5--7--8-----8/----|--3----3----3----3----|
E|--------------------------|-------------------------|----------------------|

E|---------------------|-----------------------|-------------------------------|
B|--3----3-------------|--3--------------------|-----3---3-3-3-3---3-3---------|
G|--0----0-------------|--3--------------------|-----2---2-2-2-0h2-2-2---------|
D|--0----0-------------|--3----------------3-0-|--0------------------------0-3-|
A|--2----3/---------1--|--1------------0-3-----|-----------------------0-3-----|
E|---------------------|-----------------------|-------------------------------|

E|--------------------------|-------------------------|----------------------|
B|-----3---3-3-3-3-----3----|-------------------------|----------------------|
G|-----2---2-2-2-0h2---2----|--7----7--9--10----10/---|--5----5----5----5----|
D|--0------------0-----0----|--7----7--9--10----10/---|--5----5----5----5----|
A|--------------------------|--5----5--7--8-----8/----|--3----3----3----3----|
E|--------------------------|-------------------------|----------------------|

E|-------------------------|--------------------------|-------------------------|
B|-------------------------|--------------------------|-------------------------|
G|--7----7--9--10----10/---|--5----5----5--5-5-5-5-5--|--7----7--9--10----10/---|
D|--7----7--9--10----10/---|--5----5----5--5-5-5-5-5--|--7----7--9--10----10/---|
A|--5----5--7--8-----8/----|--3----3----3--3-3-3-3-3--|--5----5--7--8-----8/----|
E|-------------------------|--------------------------|-------------------------|

E|----------------------|-------------------------|----------------------|
B|----------------------|-------------------------|----------------------|
G|--5----5----5---------|--7----7--9--10----10/---|--5----5----5----5----|
D|--5----5----5---------|--7----7--9--10----10/---|--5----5----5----5----|
A|--3----3----3------0--|--5----5--7--8-----8/----|--3----3----3----3----|
E|----------------------|-------------------------|----------------------|

E|-------------------------|--------------------------|-------------------------|
B|-------------------------|--------------------------|-------------------------|
G|--7----7--9--10----10/---|--5----5----5--5-5-5-5-5--|--7----7--9--10----10/---|
D|--7----7--9--10----10/---|--5----5----5--5-5-5-5-5--|--7----7--9--10----10/---|
A|--5----5--7--8-----8/----|--3----3----3--3-3-3-3-3--|--5----5--7--8-----8/----|
E|-------------------------|--------------------------|-------------------------|

E|-------------------------|----------------------|-------------------------|
B|-------------------------|----------------------|-------------------------|
G|--7----7--9--10----10/---|--5----5----5----5----|--7----7--9--10----10/---|
D|--7----7--9--10----10/---|--5----5----5----5----|--7----7--9--10----10/---|
A|--5----5--7--8-----8/----|--3----3----3----3----|--5----5--7--8-----8/----|
E|-------------------------|----------------------|-------------------------|

E|--------------------------|-------------------------|-------------------|
B|--------------------------|-------------------------|--3----------------|
G|--5----5----5--5-5-5-5-5--|--7----7--9--10----10/---|--3----------------|
D|--5----5----5--5-5-5-5-5--|--7----7--9--10----10/---|--3----------------|
A|--3----3----3--3-3-3-3-3--|--5----5--7--8-----8/----|--1----------------|
E|--------------------------|-------------------------|-------------------|

E|------------------|-------------------|------------------|-------------------|
B|------------------|--3----------------|------------------|--3----------------|
G|------------------|--3----------------|------------------|--3----------------|
D|------------------|--3----------------|------------------|--3----------------|
A|------------------|--1----------------|------------------|--1----------------|
E|------------------|-------------------|------------------|-------------------|

D
Winter is here again oh Lord
                                 C
Haven't been home in a year or more
            Bb                      D
I hope she holds on a little longer

D
Sent a letter on a long summer day
                       C
Made of silver, not of clay
            Bb                      D
I've been runnin' down this dusty road

[Refrão]

D             F              C
Wheel in the sky keeps on turnin
D             F             C
I don't know where I'll be tomorrow
D             F             C       Bb
Wheel in the sky keeps on turnin

D
I've been trying to make it home
                          C
Got to make it before too long
             Bb                     D
I can't take this very much longer

D
I'm standing in a sleet of rain
                                        C
Don't think I'm ever gonna make it home again
            Bb                      D
The mornin'sun is risin 'It's kissin'the day

[Refrão]

D             F              C
Wheel in the sky keeps on turnin
D             F             C
I don't know where I'll be tomorrow
D             F             C       Bb
Wheel in the sky keeps on turnin
Composição de D. Valory / N. Schon / R. Fleischman
Colaboração e revisão:
  • Cristian Corrales
  • Bruna Benco
6.580 exibições
    • ½ Tom
    • A
    • Bb
    • B
    • C
    • Db
    • D
    • Eb
    • E
    • F
    • F#
    • G
    • Ab
  • Adicionar à lista

    0 comentários

    Mostrar mais comentários

    Conseguiu tocar?

    1 Tocaram 0 Ainda não

    Grave um vídeo tocando Wheel In The Sky e mande pra gente!

    00:00 / 00:00
    outros vídeos desta música
    repetir qualidade Automático
    Outros vídeos desta música
    00:00 / 00:00
    Automático

    Cifra Club Pro

    Aproveite o Cifra Club com benefícios exclusivos e sem anúncios
    7 dias grátis
    Cifra Club Pro
    Aproveite o Cifra Club com benefícios exclusivos e sem anúncios
    7 dias grátis
    OK