Cifra Club

Wheel In The Sky

Journey

Tab de baixo: Principal
Intro:
(0:15)
G|-------------------------------------------|
D|-------3p0~----0h3p0~----3p0~----0h3p0~----|
A|-1~-0h3-----0h3-------0h3-----0h3----------|
E|-------------------------------------------|

Verso 1:
(0:28)
G|------------------------------------------------------|
D|----3p0~~~----3p0~~~----------------0~~~------0h3p0~--|
A|-0h3-------0h3-------0h1h2-3-3-1-1h3-------0h3--------|
E|----------------------------3-3-1---------------------|

Verso 1 / Pre-refrão:
(0:46)
G|------------------------------------------|
D|----3p0~~~----3p0~~~-----------0-0-0-0----|
A|-0h3-------0h3-------3-3-1-1h3--0-0-0-0---|
E|----------------------3-3-1---------------|

Refrão:
(1:05)
G|-------------------------------------------------------|
D|--00h2h3p2p0-------00h2h3p2p0--------00h2h3p2p0--------|
A|------------33-0h2-----------33--0h2------------33-0h2-|
E|--------------3----------------33-----------------3----|

Ponte:
(1:20)
G|-------------------------------|
D|--------------3p0~----0h3p0~---|
A|-2-2h3-1~--0h3-----0h3---------|
E|-------------------------------|

Verso 2:
(1:28) (you’ll hear a piano to cue you in)
G|----------------------------------------------|
D|-----3p0~----3p0~-----------------0-0-0-0~----|
A|--0h3-----0h3-----0h1h2-3-3-1-1h3--0-0-0—-----|
E|-------------------------3-3-1-1--------------|

Verso 2 / Pre-refrão:
(1:45)
G|-------------------------------------------|
D|----3p0~----3p0~-----------------0-0-0-0---|
A|-0h3-----0h3-----0h1h2-3-3-1-1h3--0-0-0-0--|
E|------------------------3-3-1--------------|

Refrão:
(2:04)
G|---------------------------------------------------------|
D|-00h2h3p2p0-------00h2h3p2p0--------00h2h3p2p0-----------|
A|-----------33-0h3-----------33—-0h3-----------33-0h3-----|
E|-------------3----------------33----------------3--------|

Ponte 2:
(2:18)
G|-------------------|
D|-------------------|
A|-2h3-1~-2h3-1~-----|
E|-------------------|

Solo:
(2:28)
G|---------------------------------------------------------------|
D|-3p0~----0h3p0~--0-0------0------------0-0-------0-------------|
A|------0h3-----------00h2h3--3-3--0h2h3-----00h2h3--3-3--0h3----|
E|-------------------------------33---------------------33-------|

(2:42)
G|--------------------------------------------|
D|-0-0-------------0-0--------0-0-------------|
A|--0-0-3-3--1-1h3--0-3-1-1h3--0-3-1~~~-------|
E|-------3-3--1----------1--------------------|

Refrão:
(3:00)
G|--------------------------------------------------------------|
D|--00h2h3p2p0-------00h2h3p2p0--------00h2h3p2p0---------------|
A|------------33-0h3-----------33--0h3-----------33-0h3—2h3—1~--|
E|--------------3----------------33----------------3------------|

(3:17)
G|---------------------|
D|----3---------0h3p0~-|
A|-0h3-3h5~--0h3-------|
E|---------------------|

Refrão
G|----------------------------------------------------------------------|
D|-00h2h3p2p0-------00h2h3p2p0--------00h2h3p2p0-------00h2h3p2p0-------|
A|-----------33-0h3-----------33--0h3-----------33-0h3—----------33-0h3-|
E|-------------3----------------33----------------3----------------3----|

(3:40)
G|----------------------------------------------------------0h2h3h5p3p2-------|
D|-00h2h3p2p0-------002h3p2p0--------002h3hp2p0-------00h2h3-----------5p3p2--|
A|-----------33-0h3----------33--0h3-----------33-0h3-----------------------5-|
E|-------------3---------------33----------------3---------------------------6|
exibições 192
Composição: D. Valory / N. Schon / R. Fleischman Colaboração e revisão:
  • Mansinho Jr.

0 comentários

mostrar mais comentários

Conseguiu tocar?

0 tocaram 0 ainda não

Grave um vídeo tocando Wheel In The Sky e mande pra gente!

00:00 / 00:00
outros vídeos desta música
repetir qualidade Automático
Outros vídeos desta música
00:00 / 00:00
Automático
OK