Cifra Club

Who's Crying Now

Journey

Tab de baixo: Principal
Intro / Verso:
G|------------------------------------------|
D|--------2--------2-0~---------------------|
A|----0~----3----3------------0~----------0-|
E|------------1~----------0~--------0--3----|

Pre-Refrão:
G|-----------------------|
D|-----------------------|
A|----------0--3--2----0-|
E|-----0--3----------3---|

Refrão:
G|---------------------|
D|----------0----------|
A|---0---------------0-|
E|--------1-------3----|

G|---------------------------|
D|---------------------------|
A|---0--------3--4--5------0-|
E|--------1-------------3----|

Ponte:
G|--------------------2-------------------|
D|--------3--0----------------------------|
A|------------------------3--------1----0-|
E|----1-----------1-----------3-----------|

G|----4--2--0--4--0--2-|
D|---------------------|
A|---------------------|
E|---------------------|
exibições 242
Composição: J. Cain / Jonathan Cain / S. Perry / Steve Perry Colaboração e revisão:
  • Mansinho Jr.

0 comentários

mostrar mais comentários

Conseguiu tocar?

0 tocaram 0 ainda não

Grave um vídeo tocando Who's Crying Now e mande pra gente!

00:00 / 00:00
outros vídeos desta música
repetir qualidade Automático
Outros vídeos desta música
00:00 / 00:00
Automático
OK