Heart And Soul

Joy Division

Composição de: Bernard Albrecht / Bernard Sumner / Ian Curtis / Peter Hook / Stephen Morris
G|-----------------------|
D|-----------------------|
A|-----------------------|
D|-0--0-3---0--0-3-0-3-5-|

G|-7--7-7---10--10--10---|
D|-0--0-0---0----0---0---|
A|-----------------------|
D|-----------------------|

G|-7--7-7--10--10-12-11-10-|-7--7-7--10--10-10--9--9-9-|-7--7-7--10--10-10/12--12-12-|
D|-0--0-0--0---0-----------|-0--0-0--0---0--0---0--0-0-|-0--0-0--0---0--0--0---0--0--|
A|-------------------------|---------------------------|-----------------------------|
D|-------------------------|---------------------------|-----------------------------|
Página 1 / 1

Letras e título
Acordes e artista

resetar configurações
OK