Shes Lost Control Intro

Joy Division

Composição de: Bernard Sumner / Ian Curtis / Peter Hook / Stephen Morris
tom: F

Inrto:
--------------------------------------------|
--------------------------------------------|
--------------------------------------------|
--------------------3-3-3-3-------3-3-0-0-0-|
-3-3-3-3-3-3--1-3-1--------1-1-1-1-1--------|
--------------------------------------------|

--------------------------------------------|
--------------------------------------------|
--------------------------------------------|
------------3-3---------------------0-0-0-0-|
-3-3-3-3-3-3---1-1-1-1---3-3-3-3-3-3--------|
--------------------------------------------|

Enjoy!!
Página 1 / 1

Letras e título
Acordes e artista

resetar configurações
OK