She's Lost Control

Joy Division

Composição de: Bernard Sumner / Ian Curtis / Peter Hook / Stephen Morris
tom: D
Riff 1:
G|-|-19----19-19-19-19-19-19-|-17-19-17-15----15-15-15-|
D|-|-------------------------|-------------------------|
A|-|-------------------------|-------------------------|
E|-|-------------------------|-------------------------|

G|-|-17----17-17-17-17-17-17-|-15-17-15-------------15-|
D|-|-------------------------|----------17----17-17----|
A|-|-------------------------|-------------------------|
E|-|-------------------------|-------------------------|

Riff 2:
G|-|-19----19-19-19-19-19-19-|-15----15-17----17-17-19-|
D|-|-------------------------|-------------------------|
A|-|-------------------------|-------------------------|
E|-|-------------------------|-------------------------|

G|-|-19----19-19-19-19-19----|----------------------15-|
D|-|-------------------------|-17-17-17-17-17-17-17----|
A|-|-------------------------|-------------------------|
E|-|-------------------------|-------------------------|

Riff 3:
G|-|---------------|-----------------|-----------------|-----------------|
D|-|---------------|-----------------|-----------------|-----------------|
A|-|---------------|-------3-3-3-3-5-|-5---5-5-5-5-5-5-|-0-5-5-5-0-5-5-5-|
E|-|-3-3---5-5-5-6-|-6-6-6-----------|-----------------|-----------------|

G|-|---------------|-----------------|-----------------|-----------------|
D|-|---------------|-----------------|-----------------|-----------------|
A|-|---------------|-------3-3-3-3---|-----------------|-----------------|
E|-|-3-3---5-5-5-6-|-6-6-6---------3-|-3---3-3-3-3-3-3-|-3-3-3-3-3-3-3-3-|

Música:

Intro:
Riff 1  (x2)

Verse:
Riff 1  (x4)
Riff 2

Break:
Riff 1  (x2)

Verse:
Riff 1  (x4)

Refrão:
Riff 2  (x2)

Break:
Riff 3  (x2)
Riff 1  (x2)

Verse:
Riff 1  (x4)

Refrão:
Riff 2  (x2)

Fim:
Riff 3  (x3)
Página 1 / 1

Letras e título
Acordes e artista

resetar configurações
OK