Cifra Club

Aprenda

Lo que Me Gusta a Mi

Juanes

Cifra: Principal (violão e guitarra)
Já pensou em usar uma coleção de roupas do Cifra Club? Responda as perguntas abaixo e nos ajude nessa missão! →
tom: E
INTRO 
 
E|------------------------------------------------------------------------------------ 
B|------------------------------------------------------------------------------------ 
G|------------------------------------------------------------------------------------ 
D|------------------------------------------------------------------------------------ 
A|--4-4-2--4-4-2--4-4-2--4-4-2-2-4-4---0--0-----------2-2-2-4-4-2-2-4-4--0--0--------- 
E|-------------------------------------------2--2------------------------------2--2--- 
 
E|--------------------------------------------------------- 
B|--------------------------------------------------------- 
G|--------------------------------------------------------- 
D|-----------------2--1--------2--1------------------------ 
A|--2-2-2-4-4-2-2--------4--2--------4--2------------------ 
E|--------------------------------------------------------- 
 
E|------------------------------------------------------------------------------------ 
B|--2-2-0--2-2-0--2-2-0--2-2-0-0-2-2------------------0-0-0-2-2-0-0-2-2--------------- 
G|-------------------------------------2--2------------------------------2--2--------- 
D|-------------------------------------------4--4------------------------------4-?4--- 
A|------------------------------------------------------------------------------------ 
E|------------------------------------------------------------------------------------ 
 
E|----------------------------0---------0------------------ 
B|----0-0-0-0------------------0-------0------------------- 
G|-------------2--1-------------2-----2-------------------- 
D|-------------------4--2--------2---2--------------------- 
A|--------------------------------------------------------- 
E|--------------------------------------------------------- 
 
 
E                     B
Cuando yo estoy pensando en ti 
A                        E
Amor es lo que mas fuerte sale de mi 
E                        B
Por eso yo siempre vivo tan feliz 
A                              E
Pues tu eres lo que yo mas quiero para mi 
 
E                           B
Cuando yo me voy para Medellín 
A                     E
En cada montaña dibujo yo trozos de ti 
E                         B
Y si yo me voy para Bogota también allá 
A                        E
Esa sabana bella de ti me hace recordar 
 
PRE-CORO: 
G#m       Gm       F#m
Y he recorrido el mundo entero y jamás 
                     A                E
Te digo que he visto cosa mas bella que tu mirar 
              G#m       Gm       F#m
Te digo que he visto la luna de noche hablar con el mar 
                    A                E
Pero jamás he visto cosa mas bella que tu mirar 
 
CORO: 
      E                               B
Y es que son tus ojos tu sonrisa y tu boca 
                      A                           E
Y tu carita de coqueta al final lo que me gusta a mi 
      E                              B
Y soy yo quien se pone como un loco 
                      A                                E
Cuando me miras poco a poco de la manera que me gusta a mi 
 
INTRO 
 
E                           B
Ayer hacia mucho mucho pero mucho calor 
                  A                E
Y yo sentía frió porque no tenia todo tu amor 
E                                  B
Hoy en cambio hace frió y siento mucho calor 
                A                E
Porque estás tú de nuevo conmigo mi gran amor 
 
PRE-CORO: 
G#m       Gm       F#m
Y he recorrido el mundo entero y jamás 
                     A                E
Te digo que he visto cosa mas bella que tu mirar 
               G#m       Gm           B
Te digo que he visto la luna de noche hablar con el mar 
                        A                E
Pero jamás he visto una cosa mas bella que tu mirar 
 
CORO: 
      E                               B
Y es que son tus ojos tu sonrisa y tu boca 
                      A                           E
Y tu carita de coqueta al final lo que me gusta a mi 
      E                              B
Y soy yo quien se pone como un loco 
                      A                                E
Cuando me miras poco a poco de la manera que me gusta a mi
Composição de Juanes
Colaboração e revisão:
  • Esteban xcv
  • Roger Figueira
7.391 exibições
    • ½ Tom
    • A
    • Bb
    • B
    • C
    • Db
    • D
    • Eb
    • E
    • F
    • F#
    • G
    • Ab
  • Adicionar à lista

    0 comentários

    Ver todos os comentários

    Conseguiu tocar?

    0 Tocaram 0 Ainda não

    Grave um vídeo tocando Lo que Me Gusta a Mi e nos envie!

    00:00 / 00:00
    Outros vídeos desta música
    Repetir Qualidade Automático
    Outros vídeos desta música
    00:00 / 00:00
    Automático

    Cifra Club Pro

    Aproveite o Cifra Club com benefícios exclusivos e sem anúncios
    Cifra Club Pro
    Aproveite o Cifra Club com benefícios exclusivos e sem anúncios
    OK