Breaking The Law

Judas Priest

Composição: Glenn Tipton / Håkan Lundqvist / K.K. Downing
Tom: C
Introdução: A5  F5  G5


E|------------------------------------------------------|
B|------------------------------------------------------|
G|------------------------------------------------------|
D|------------------------------------------------------|
A|-0--2--3--0-2--3--0-2--3--------0-------0----3--2-----|
E|--------------------------1--3-----1-3-----3----------|



Primeira Parte:

  A5
There I was completely wasting
C5      G5       A5
Out of work and down
A5
All inside it's so frustrating
       C5        G5      A5
As I drift from town to town

 F5
Feel as though nobody cares
C5
If I live or die
 F5
So I might as well begin
            C5
To put some action in my life


Primeiro Refrão:

A5
   Breaking the law, breaking the law

Breaking the law, breaking the law

Breaking the law, breaking the law

Breaking the law, breaking the law


Segunda Parte:

 A5
So much for the golden future
C5      G5     A5
I can't even start
A5
I've had every promise broken
            C5    D5     E5
And there's anger in my heart

 F5
You don't know what it's like
 C5
You don't have a clue
F5
If you did you'd find yourselves
 C5
Doing the same thing too


Segundo Refrão:

A5
   Breaking the law, breaking the law

Breaking the law, breaking the law

Breaking the law, breaking the law

Breaking the law, breaking the law


Ponte: ( B5  A5 )
       D5  ( F5  C5 )  D5  ( F5  G5 )
       (Riff Principal)
       A5  F5  G5

You don't know what it's like

(Riff Principal Oitavado)


E|------------------------------------------------------|
B|------------------------------------------------------|
G|-2--4--5--2-4--5--2-4--5---------------------5--4-----|
D|--------------------------3--5--7--3-5--7--5----------|
A|------------------------------------------------------|
E|------------------------------------------------------|



Final:

  A5
Breaking the law, breaking the law
  F5                G5
Breaking the law, breaking the law
  A5
Breaking the law, breaking the law
  F5                G5
Breaking the law, breaking the law

A5
   Breaking the law, breaking the law
F5                     G5
   Breaking the law, breaking the law
A5
   Breaking the law, breaking the law
F5                     G5              A5
   Breaking the law, breaking the law
Página 1 / 1

Letras e título
Acordes e artista

resetar configurações