Cifra Club

Breaking The Law

Judas Priest

Tab de baixo: Versão 4
exibições 199
Intro              1st Verse
-|-----------------||----------------|----------------|-----------------------
-|*---------------*||----------------|----------------|-----------------------
-|*---------------*||-------3--------|-------3--------|-----------------------
-|---5-----1---3---||--5-------3--5--|--5-------3--5--|-----------------------                                                             

  pre-chorus                                       chorus
-|--------|----------5------5---|-------|-------||-----------|-------------||-
-|--------|---------------------|-------|-------||*-------5\-|------5-5\--*||-
-|--------|--3---3-3----3-3-----|-------|---7---||*----------|------------*||-
-|----1---|---------------------|---1---|---0---||---5-------|---5---------||-
                                                                              
  2nd verse                      pre-chorus
-|---------------|--------------|-----|----------5-----5-|-----|-----|--------
-|---------------|--------------|-----|------------------|-----|-----|--------
-|------3--------|-----3--5--7--|-----|--3---3-3---3-3---|-----|--7--|--------
-|--5------3--5--|--5--------0--|--1--|------------------|--1--|--0--|--------
                                                                              
  chorus                    bridge     "You don't know what it's like..."
-|----------|-------------||---------||---------------|---------------||------
-|*------5\-|-------5-5\-*||*-----9-*||*--------------|--------------*||------
-|*---------|------------*||*-------*||*-----8--------|-------8--10--*||------
-|---5------|---5---------||--7------||--10----8------|--10-----------||------                                                                

  The rest follows this progression, just listen for the rhythms
-|--------|--------------|----------------------------------------------------
-|*-------|-------------*|----------------------------------------------------
-|*-------|-------------*|----------------------------------------------------
-|---5----|----1----3----|----------------------------------------------------
Composição: Glenn Tipton / Håkan Lundqvist / K.K. DowningColaboração e revisão:
  • Eliakin sá

0 comentários

    mostrar mais comentários

    Conseguiu tocar?

    0tocaram0ainda não

    Grave um vídeo tocando Breaking The Law e mande pra gente!

    00:00 / 00:00
    outros vídeos desta música
    repetirqualidadeautomática
    Outro vídeos desta música
      00:00 / 00:00
      automática
      Capítulos
      • Tocando a música
      • Dicas Iniciais / Equipamentos
      • Introdução
      • Primeira Parte - Parte 1 de 3
      • Primeira Parte - Parte 2 de 3
      • Primeira Parte - Parte 3 de 3
      • Refrão
      • Segunda Parte - Parte 1 de 4
      • Segunda Parte - Parte 2 de 4
      • Segunda Parte - Parte 3 de 4
      • Segunda Parte - Parte 4 de 4
      • Segundo Refrão - Parte 1 de 2
      • Segundo Refrão - Parte 2 de 2
      • Solo de Guitarra - Parte 1 de 4
      • Solo de Guitarra - Parte 2 de 4
      • Solo de Guitarra - Parte 3 de 4
      • Solo de Guitarra - Parte 4 de 4
      • Segunda Introdução
      • Terceiro Refrão - Parte 1 de 3
      • Terceiro Refrão - Parte 2 de 3
      • Terceiro Refrão - Parte 3 de 3
      • Encerramento
      • Ficha Técnica
      OK