Enviar cifraEntrar

Grinder

Judas Priest

Tab de baixo: Principal
exibições 1.653
VERSO
=======================================================
quando a bateria entrar:   
      8x                  2x                6x
G|-----------------|-----------------|-----------------|
D|-----------------|-----------------|-----------------|
A|-0-0-0-0-0-0-0-0-|-----------------|-0-0-0-0-0-0-0-0-|
E|-----------------|-3-3-3-3-3-3-3-3-|-----------------|

         2x
G|-----------------|-----------------|
D|-----------------|-----------------|
A|-----------------|-0-0-0-0-0-0-0-0-|
E|-3-3-3-3-3-3-3-3-|-----------------|


*
REFRÃO 2x
=======================================================
"Griiiindeeeer..."
G|-----------|-----------------|-----------|-----------------|
D|-----------|-----------------|-----------|-----------------|
A|-----------|-----------------|-------0---|-----------------|
E|-0--2--2-2-|-2-2-2-2-2-2-2-2-|-0--2----2-|-----2-2-2-2-2-2-|

*
VERSO 2
============================================================
     4x                 2x                  6x                
G|-----------------|-----------------|-----------------|
D|-----------------|-----------------|-----------------|
A|-0-0-0-0-0-0-0-0-|-----------------|-0-0-0-0-0-0-0-0-|
E|-----------------|-3-3-3-3-3-3-3-3-|-----------------|

         2x                 2x
G|-----------------|-----------------|
D|-----------------|-----------------|
A|-----------------|-0-0-0-0-0-0-0-0-|
E|-3-3-3-3-3-3-3-3-|-----------------|


*
REFRÃO 2x
=======================================================
"Griiiindeeeer..."
G|-----------|-----------------|-----------|-----------------|
D|-----------|-----------------|-----------|-----------------|
A|-----------|-----------------|-------0---|-----------------|
E|-0--2--2-2-|-2-2-2-2-2-2-2-2-|-0--2----2-|-----2-2-2-2-2-2-|

=======================================================
SOLO (mesma coisa do verso 2, mas o último compasso fica:
A|-0---|

*
DEPOIS DO SOLO
=======================================================
   apenas baixo
G|---------------|
D|---------------|
A|---0--0-0--0-0-|
E|---------------|

G|------------|--------------|------------|--------------|
D|------------|--------------|------------|--------------|
A|------------|--------------|------------|--------------|
E|---0--0-1-0-|2--2-2-2--2-2-|2--0--0-1-0-|2--2-2-2--2-2-|

G|------------|--------------|------------|
D|------------|--------------|------------|
A|--0---------|--------------|------------|
E|2----2--2-1-|0--0-0-0--0-0-|0--0--1--0-1|

G|------------|--------------|------------|--------------|
D|------------|--------------|------------|--------------|
A|------------|--------------|------------|--------------|
E|---0--0-1-0-|2--2-2-2--2-2-|2--0--0-1-0-|2--2-2-2--2-2-|

G|------------|--------------|------------|--------------|
D|------------|--------------|------------|--------------|
A|--0---------|--------------|------------|--------------|
E|2----2--2-1-|0--0-0-0--0-0-|0--0--1--0-1|2--2-2-2--2-2-|

G|---------|
D|---------|
A|---------|
E|2----0-2-|

=======================================================
DEPOIS REPETE VERSO 1
DEPOIS REPETE REFRÃO ATÉ A MÚSICA ACABAR, E NO FINAL:
A|--0--2--|

_______________________________________________________
Contribuição: Euler Neto(netonirvana@hotmail.com)
  • 1
  • 2
  • 3
  • 4
  • 5
  • 6
  • 7
  • 8
  • 9
  • 10
  • 11
  • 12

    0 comentários

      mostrar mais comentários

      Conseguiu tocar?

      1tocaram0ainda não

      Grave um vídeo tocando Grinder e mande pra gente!

      00:00 / 00:00
      outros vídeos desta música
      repetirqualidadeautomática
      • automática
      Outro vídeos desta música
        00:00 / 00:00
        automática
        • automática
        Acordes para:violão e guitarra
        dificuldadeexibiçõescontribuições
        3 versões de Tab de baixoexibiçõescontribuições
        1 versão de Guitar Proformatodownloadscontribuição
        fecharplay/pause subir/descer velocidade
        fechar
        OK
        Feedback