Cifra Club

Judas Rising

Judas Priest

Cifra: Principal (violão e guitarra)
tom: E
Acho q esta 98% correto
|--------0-----------0-----------0-----------0-----------0-|
|--0-5-7---7-5-0-5-7---7-5-0-5-7---7-5-0-5-7---7-5-0-7-8---|
|----------------------------------------------------------|
|----------------------------------------------------------|
|----------------------------------------------------------|
|----------------------------------------------------------|

|-----------0-----------0-----------0------------0-------------0-|
|-8-7-0-7-8---8-7-0-7-8---8-7-0-7-8---8-7-0-8-10---10-8-0-8-10---|
|----------------------------------------------------------------|
|----------------------------------------------------------------|
|----------------------------------------------------------------|
|----------------------------------------------------------------|

|-------------0-------------0-------------|
|-10-8-0-8-10---10-8-0-8-10---10-8-0------|
|-----------------------------------------|
|-----------------------------------------|
|-----------------------------------------|
|-----------------------------------------|

|--------0-----------0-----------0-----------0-----------0-|
|--0-5-7---7-5-0-5-7---7-5-0-5-7---7-5-0-5-7---7-5-0-7-8---|
|----------------------------------------------------------|
|----------------------------------------------------------|
|----------------------------------------------------------|
|----------------------------------------------------------|

|-----------0-----------0-----------0------------0-------------0-|
|-8-7-0-7-8---8-7-0-7-8---8-7-0-7-8---8-7-0-8-10---10-8-0-8-10---|
|----------------------------------------------------------------|
|----------------------------------------------------------------|
|----------------------------------------------------------------|
|----------------------------------------------------------------|

|-------------0-------------0--------------0---------------0--|
|-10-8-0-8-10---10-8-0-10-8---10-8-0-10-12---12-10-0-10-12----|
|-------------------------------------------------------------|
|-------------------------------------------------------------|
|-------------------------------------------------------------|
|-------------------------------------------------------------|

|---------------0---------------0---------------0---------------0--|
|-12-10-0-10-12---12-10-0-10-12---12-10-0-12-15---15-12-0-12-15----|
|------------------------------------------------------------------|
|------------------------------------------------------------------|
|------------------------------------------------------------------|
|------------------------------------------------------------------|

|---------------0---------------15---------------15---------------15-|
|-15-12-0-12-15---15-12-0-15-17----17-15-0-15-17----17-15-0-15-17----|
|--------------------------------------------------------------------|
|--------------------------------------------------------------------|
|--------------------------------------------------------------------|
|--------------------------------------------------------------------|

|----------12~--------------------|
|--17-15-0-15b~-------------------|
|---------------------------------|
|---------------------------------|
|---------------------------------|
|---------------------------------|

Essa parte é tocada bem baixinho no intro
|----------------------------------------------------------------------|
|----------------------------------------------------------------------|
|----------------------------------------------------------------------|
|7~-7-9-10-9~--9-10-12--14-12-10~--------------------------------------|
|---------------------------------10-9-7-10-7--7-9-10-9--9-10-12-10~---|
|----------------------------------------------------------------------|

|--------------------------------------------|
|--------------------------------------------|
|--------------------------------------------|
|--------------------------------------------|
|-10-12-14-15-14-12-10-9-7-10-7~-------------|
|--------------------------------------------|

|---------------------------------------------------------|
|---------------------------------------------------------|
|---------------------------------------------------------|
|-7/9999--7/9999-7/9999-------7/9999--7/9999--------------|
|-5/7777--5/7777-5/7777-5-4-2-5/7777--5/7777-5-4-2-5-4-2--|
|-----------------------3-2-0----------------3-2-0-3-2-0--|

|---------------------------------------------------------------|
|---------------------------------------------------------------|
|---------------------------------------------------------------|
|-7/9999--7/9999--7/9999----------7/9999--7/9999--7/9999--------|
|-5/7777--5/7777--5/7777--5-4-2---5/7777--5/7777--5/7777-5-4-2--|
|-------------------------3-2-0--------------------------3-2-0--|    

|-----------------------------------------------------|
|-----------------------------------------------------|
|-----------------------------------------------------|
|-7-7-7-7-7-7-7-7-7-7--------7/9-9-9-9-9-9-9-9--------|
|-5-5-5-5-5-5-5-5-5-5--5-4-2-5/7-7-7-7-7-7-7-7-5-4-2--|
|----------------------3-2-0-------------------3-2-0--|

|--------------------------------------------------------------|
|--------------------------------------------------------------|
|--------------------------------------------------------------|
|-7/9999--7/9999--7/9999----------7/9999--7/9999--7/9999-------|
|-5/7777--5/7777--5/7777---5-4-2--5/7777--5/7777--5/7777-5-4-2-|
|--------------------------3-2-0-------------------------3-2-0-|

|----------------------------------------------------------------|
|----------------------------------------------------------------|
|----------------------------------------------------------------|
|-55555555-44444444--------------------------------------7-7-7-7-|
|-33333333-22222222-5555-2222-------0022332200---5-5-5-5-5-5-5-5-|
|-------------------3333-0000-002233-------------3-3-3-3---------|

|-----------------------|
|-----------------------|
|-----------------------|
|---------7-7-7-7-------|
|-5-5-5-5-5-5-5-5-------|
|-3-3-3-3---------------| 

|-------------------------------------------------------------|
|-------------------------------------------------------------|
|-------------------------------------------------------------|
|-7/9999--7/9999--7/9999----------7/9999-7/9999---------------|
|-5/7777--5/7777--5/7777--5-4-2---5/7777-5/7777-5-4-2-5-4-0---|
|-------------------------3-2-0-----------------3-2-0-3-2-0---|

|-------------------------------------------------------------|
|----------15b~-----------------------------------------------|
|------------------------14-----------------------------------|
|-------------------------------------------------------------|
|-------------------------------------------------------------|
|-------------------------------------------------------------|

|-------------------------------------------------------------|
|-------------------------------------------------------------|
|-------------------------------------------------------------|
|-7/9999--7/9999--7/9999--------7/9999--7/9999--7/9999--------|
|-5/7777--5/7777--5/7777-5-4-2--5/7777--5/7777--5/7777-5-4-2--|
|------------------------3-2-0-------------------------3-2-0--|

|-------------------------------------------------------------|
|-------------------------------------------------------------|
|-------------------------------------------------------------|
|-7/9999--7/9999--7/9999--------7/9999--7/9999--7/9999--------|
|-5/7777--5/7777--5/7777-5-4-2--5/7777--5/7777--5/7777-5-4-2--|
|------------------------3-2-0-------------------------3-2-0--|

|---------------------------------------------------------|
|---------------------------------------------------------|
|---------------------------------------------------------|
|-7-7-7-7-7-7-7-7-7-7--------7/9-9-9-9-9-9-9-9-9-9--------|
|-5-5-5-5-5-5-5-5-5-5--5-4-2-5/7-7-7-7-7-7-7-7-7-7--5-4-2-|
|----------------------3-2-0---0-0-0-0-0-0-0-0-0-0--3-2-0-|

|---------------------------------------|
|---------------------------------------|
|---------------------------------------|
|-7/9999--7/9999--7/9999----------------|
|-5/7777--5/7777--5/7777-5--4--2--------|
|------------------------3--2--0--------|

||--------------------------------------|
|---------------------------------------|
|---------------------------------------|
|---------------------------------------|
|-9h1010-9h1010--9h1010-12-10-9-9h10----|
|---------------------------------------|

|---------------------------------------|
|---------------------------------------|
|---------------------------------------|
|-7/9999--7/9999--7/9999----------------|
|-5/7777--5/7777--5/7777-5--4--2--------|
|------------------------3--2--0--------|

||--------------------------------------|
|---------------------------------------|
|---------------------------------------|
|---------------------------------------|
|-9h1010-9h1010--9h1010-12-10-9-9h10----|
|---------------------------------------|

|------------------------------------------------|
|------------------------------------------------|
|------------------------------------------------|
|-55555555-44444444------------------------------|
|-33333333-22222222-5555-2222-------0022332200---|
|-------------------3333-0000-002233-------------| 

|---------------------------------------------|
|---------------------------------------------|
|---------------------------------------------|
|----------------------77---77---77---77------|
|-55---55---55----55---55---55---55---55------|
|-33---33---33----33--------------------------|

|-----------------------------------------|
|-----------------------------------------|
|-----------------------------------------|
|---------------------77---77---77---77---|
|-55---55---55---55---55---55---55---55---|
|-33---33---33---33-----------------------|

|---------------------------------------------------------|
|---------------------------------------------------------|
|---------------------------------------------------------|
| 7/9999--7/9999--7/9999-------7/9999-7/9999-7/9999-------|
|-5/7777--5/7777--5/7777-5-4-3-5/7777-5/7777-5/7777-5-4-2-|
|------------------------3-2-0----------------------3-2-0-|

|---------------------------------------------------------|
|--------b15~---------------------------------------------|
|-----------------------------------------------14~r14p12-|
|-------------------------------------------------------14|
|---------------------------------------------------------|
|---------------------------------------------------------|

[solo] Alguma Ideia? acho q isso serve como a base para o solo. 

|-------------------------------------------------------------------------|
|-------------------------------------------------------------------------|
|-------------------------------------------------------------------------|
|-4-----5-------4-----5-------4-----5-------4-----5-4-3-5-4-2-------------|
|-2-----3-------2-----3-------2-----3-------2-----3-2-0-3-2-0-5-4-2-5-4-2-|
|-------------------------------------------------------------3-2-0-3-2-0-|

|---------------------------------------|
|---------------------------------------|
|---------------------------------------|
|-7/9999--7/9999--7/9999----------------|
|-5/7777--5/7777--5/7777-5--4--2--------|
|------------------------3--2--0--------|

|---------------------------------------|
|---------------------------------------|
|---------------------------------------|
|-7/9999--7/9999--7/9999----------------|
|-5/7777--5/7777--5/7777-5--4--2--------|
|------------------------3--2--0--------|

|-----------------------------------------------------|
|-----------------------------------------------------|
|-----------------------------------------------------|
|-7-7-7-7-7-7-7-7-7-7--------7/9-9-9-9-9-9-9-9--------|
|-5-5-5-5-5-5-5-5-5-5--5-4-2-5/7-7-7-7-7-7-7-7-5-4-2--|
|----------------------3-2-0-------------------3-2-0--|

|---------------------------------------|
|---------------------------------------|
|---------------------------------------|
|-7/9999--7/9999--7/9999----------------|
|-5/7777--5/7777--5/7777-5--4--2--------|
|------------------------3--2--0--------|

|---------------------------------------|
|---------------------------------------|
|---------------------------------------|
|-7/9999--7/9999--7/9999----------------|
|-5/7777--5/7777--5/7777-5--4--2--------|
|------------------------3--2--0--------|

|----------------------------------------------|
|----------------------------------------------|
|----------------------------------------------|
|-55555555-44444444----------------------------|
|-33333333-22222222-5555-2222-------0022332200-|
|-------------------3333-0000-002233-----------|

|-----------------------------------------|
|-----------------------------------------|
|-----------------------------------------|
|---------------------77---77---77---77---|
|-55---55---55---55---55---55---55---55---|
|-33---33---33---33-----------------------|

|-----------------------------------------|
|-----------------------------------------|
|-----------------------------------------|
|---------------------77---77---77---77---|
|-55---55---55---55---55---55---55---55---|
|-33---33---33---33-----------------------|

|---------------------------------------------------------|
|---------------------------------------------------------|
|---------------------------------------------------------|
| 7/9999--7/9999--7/9999-------7/9999-7/9999--------------|
|-5/7777--5/7777--5/7777-5-4-3-5/7777-5/7777-5-4-2-5-4-2--|
|------------------------3-2-0---------------3-2-0-3-2-0--|

|---------------------------------------------------------|
|--------------------------------------------|
|--------------------------------------------|
| 7/9999--7/9999--7/9999-------7/9999-7/9999-|
|-5/7777--5/7777--5/7777-5-4-3-5/7777-5/7777-|
|------------------------3-2-0---------------|

|------------------------------|
|------------------------------|
|------------------------------|
|-5-4-2-5-4-2--------------7/9-|
|-3-2-0-3-2-0-5-4-2-5-4-2--5/7-|
|-------------3-2-0-3-2-0------|
00:00 / 00:00
Outros vídeos desta música
Repetir
Outros vídeos desta música
Composição de Glenn Tipton / Håkan Lundqvist / K.K. Downing
Colaboração e revisão:
  • Rafael
2.650 exibições
    • ½ Tom
    • A
    • Bb
    • B
    • C
    • Db
    • D
    • Eb
    • E
    • F
    • F#
    • G
    • Ab
  • Adicionar à lista

    0 comentários

    Ver todos os comentários

    Conseguiu tocar?

    1 Tocaram 0 Ainda não

    Grave um vídeo tocando Judas Rising e nos envie!

    Entre para oCifra Club PRO

    Tenha acesso a benefícios exclusivos no App e no Site

    • Chega de anúncios

    • Prioridade de compra em lançamentos

    • Mais recursos no app do Afinador

    • Atendimento Prioritário

    • Descontos nos produtos Cifra Club

    • Ajude a produzir mais conteúdo

    00:00 / 00:00

    Cifra Club Pro

    Aproveite o Cifra Club com benefícios exclusivos e sem anúncios
    Cifra Club Pro
    Aproveite o Cifra Club com benefícios exclusivos e sem anúncios
    OK