Cifra Club

Aprenda

Victim Of Changes

Judas Priest

Cifra: Principal (violão e guitarra)
tom: Em
[Intro]

E|--15-12-0-15-12-0-15-12-0-15-12-0-15-12-0-15-12-0-15-12-0-15-12-0--|
B|-------------------------------------------------------------------|
G|-------------------------------------------------------------------|
D|-------------------------------------------------------------------|
A|-------------------------------------------------------------------|
E|-------------------------------------------------------------------|

E|--17-15-0-17-15-0-17-15-0-17-15-0-17-15-0-17-15-0-17-15-0-17-15-0--|
B|-------------------------------------------------------------------|
G|-------------------------------------------------------------------|
D|-------------------------------------------------------------------|
A|-------------------------------------------------------------------|
E|-------------------------------------------------------------------|

E|--15-12-0-15-12-0-15-12-0-15-12-0-15-12-0-15-12-0-15-12-0-15-12-0--|
B|-------------------------------------------------------------------|
G|-------------------------------------------------------------------|
D|-------------------------------------------------------------------|
A|-------------------------------------------------------------------|
E|-------------------------------------------------------------------|

E|--14-17-0-14-17-0-14-17-0-14-17-0-14-17-0-14-17-0-14-17-0-14-17-0--|
B|-------------------------------------------------------------------|
G|-------------------------------------------------------------------|
D|-------------------------------------------------------------------|
A|-------------------------------------------------------------------|
E|-------------------------------------------------------------------|

E|----------------------------------------------------------------------------------|
B|-15-12-0-12-10-0-10-8-0-8-7-0-----------------------------------------------------|
G|---------------------------------9-7-0-9-7-0-9-7-0-9-7-0-9-7-0-9-7-0-9-7-0-9-7-0--|
D|----------------------------------------------------------------------------------|
A|----------------------------------------------------------------------------------|
E|----------------------------------------------------------------------------------|

E|----------------------------------|
B|----------------------------------|
G|-9p7------------------------------|
D|-----9-8-7------------------------|
A|-----------10-9-7-7-6-5-----------|
E|------------------------7-6-5\3---|

 Main Riff (4x)

E|--------------------------------|
B|--------------------------------|
G|--------------------------------|
D|-0h9----0h9----9\7--------------|
A|-0h7----0h7----7\5--------------|
E|-----00-----00--------7-6-5-3---|

[Bridge]

E|-------------------------------------------------|
B|-------------------------------------------------|
G|-0h2-----------------------2---------------------|
D|-0h2-----------------------2---------5--5-4-2----|
A|-0---0-0-3p0--3-3-0-3/5----0-0-0-3p0-3--3-2-0-5--|
E|----------------------------------------------3--|

 Main Riff (2x)

E|----------------------------------|
B|----------------------------------|
G|-9p7------------------------------|
D|-----9-8-7------------------------|
A|-----------10-9-7-7-6-5-----------|
E|------------------------7-6-5\3---|

     "Whiskey woman don't you know that you are drivin' me insane!?"
E|------------------------------------------------------------------|
B|------------------------------------------------------------------|
G|------------------------------------------------------------------|
D|------------------------------------------------------------------|
A|-2-(2)------------------------------------------------------------|
E|-0-(0)------------------------------------------------------------|

 Main Riff (2x)

    "The liquor you give stems your will to live and gets right to my brain"
E|--------------------------------------------------------------------------|
B|--------------------------------------------------------------------------|
G|--------------------------------------------------------------------------|
D|--------------------------------------------------------------------------|
A|-2-(2)--------------------------------------------------------------------|
E|-0-(0)--------------------------------------------------------------------|


Main Riff (2x)

  "Don't you know you're driving me insane?"
E|------------------------------------------|
B|------------------------------------------|
G|------------------------------------------|
D|-0h9----0h9----9\7------------------------|
A|-0h7----0h7----7\5------------------------|
E|-----00-----00--------7-6-5-3-------------|

[Bridge]

  "You're tryin' to find your way through life
     You're tryin' to get some new direction"
E|-------------------------------------------------|
B|-------------------------------------------------|
G|-0h2-----------------------2---------------------|
D|-0h2-----------------------2---------5--5-4-2----|
A|-0---0-0-3p0--3-3-0-3/5----0-0-0-3p0-3--3-2-0-5--|
E|----------------------------------------------3--|

Main Riff (2x)

E|--------------------------------|
B|--------------------------------|
G|--------------------------------|
D|-0h9----0h9----9\7--------------|
A|-0h7----0h7----7\5--------------|
E|-----00-----00--------7-6-5-3---|

[Bridge]

           "Another woman's got her man
       But she won't find no new connection"
E|-------------------------------------------------|
B|-------------------------------------------------|
G|-0h2-----------------------2---------------------|
D|-0h2-----------------------2---------5--5-4-2----|
A|-0---0-0-3p0--3-3-0-3/5----0-0-0-3p0-3--3-2-0-5--|
E|----------------------------------------------3--|
PM:    [--]        [-]         [--]


 Main Riff (2x)

 [Refrão]

     "Takes another drink or two
Things look better when she's through"
E|-----------------------------------|
B|-----------------------------------|
G|-----------------------------------|
D|-----4----4----4----4----5----4----|
A|--00-2-00-2-00-2-00-2----3-00-2----|
E|-----------------------------------|

 Main Riff (1x)

E|----------------------|
B|----------------------|
G|----------------------|
D|-0h9----0h9----7-(7)--|
A|-0h7----0h7----5-(5)--|
E|-----00-----00--------|

[Solo]

E|---------------------------------------------------------|
B|--10b12-10-8-10-8-----8----------------------------------|
G|------------------7h9---9--7h9p7---7----------------7----|
D|---------------------------------9---9p7-9p7----7-9------|
A|---------------------------------------------10-------7--|
E|---------------------------------------------------------|

[Ponte]

  Guitar 1
E|------------------------------------------------------------|
B|------------------------------------------------------------|
G|--------------2-(2)--------7-(7)--------2-(2)--------4-(4)--|
D|-2-(2)--------2-(2)--------7-(7)--------2-(2)--------4-(4)--|
A|-2-(2)--------0-(0)--------5-(5)--------0-(0)--------2-(2)--|
E|-0-(0)------------------------------------------------------|

  Guitar 2 (2x)
E|----------------------------------------------------------|
B|----------------------------------------------------------|
G|----------------------------------------------------------|
D|----------------------------------------------------------|
A|----------------------------------------------------------|
E|--7-5-00-5-3-00-3-2-00-3-2-0--7-5-00-7-5-00-3-5-00-3-2-0--|

E|-----------------------------------------------------------|
B|-----------------------------------------------------------|
G|-----------------------------------------------------------|
D|-----------------------------------------------------------|
A|-----------------------------------------------------------|
E|--7-5-00-5-3-00-3-2-00-3-2-0--7-5-00-7-5-00-3-5-00-3-2-0-2-|

       "Take another look around, you're not goin' anywhere"
E|------------------------------------------------------------------|
B|------------------------------------------------------------------|
G|------------------------------------------------------------------|
D|------------------------------------------------------------------|
A|-2-(2)------------------------------------------------------------|
E|-0-(0)------------------------------------------------------------|

Main Riff (2x)

       "Realized you're gettin' old and no one seems to care"
E|------------------------------------------------------------------|
B|------------------------------------------------------------------|
G|------------------------------------------------------------------|
D|------------------------------------------------------------------|
A|-2-(2)------------------------------------------------------------|
E|-0-(0)------------------------------------------------------------|

Main Riff (2x)

[Ponte]

      "You're tryin' to find your way again
          You're tryin' to find some new"
E|-------------------------------------------------|
B|-------------------------------------------------|
G|-0h2-----------------------2---------------------|
D|-0h2-----------------------2---------5--5-4-2----|
A|-0---0-0-3p0--3-3-0-3/5----0-0-0-3p0-3--3-2-0-5--|
E|----------------------------------------------3--|

Main Riff (2x)

[Bridge]

          "Another woman's got her man
            But she won't find a new"
E|-------------------------------------------------|
B|-------------------------------------------------|
G|-0h2-----------------------2---------------------|
D|-0h2-----------------------2---------5--5-4-2----|
A|-0---0-0-3p0--3-3-0-3/5----0-0-0-3p0-3--3-2-0-5--|
E|----------------------------------------------3--|

[Chorus]

     "Takes another drink or two
Things look better when she's through"
E|-----------------------------------|
B|-----------------------------------|
G|-----------------------------------|
D|-----4----4----4----4----5----4----|
A|--00-2-00-2-00-2-00-2----3-00-2----|
E|-----------------------------------|

Main Riff (2x)


[Solo]
E|---------------------------------------------------------|
B|-8b10--8b10-8\7\5---5\4-------1-3p1------3-1p0-----------|
G|----------------7-----7\5\2-------2-0-2------2p0---------|
D|-------------------------------------------------2p0-----|
A|-----------------------------------------------------3---|
E|---------------------------------------------------------|

  [Guitar 1]                    
E|-------------------------------------------|
B|-------------------------------------------|
G|-------------------------------------------|
D|-2--2---------------------------2----------|
A|-0--0------5--5------4--4---------3----/---|
E|-----------3--3------2--2------------------|
 
  [Guitar 2]
E|-------------------------------------------|
B|-------------------------------------------|
G|-9--9--------------------------------------|
D|-7--7------12-12-----11-11------5----------|
A|-0--0------10-10-----9--9---------3----/---|
E|-------------------------------------------| 

  [Guitar 1]          
E|-------------------------------------------|
B|-------------------------------------------|
G|-------------------------------------------|
D|-7-/9------6-/7------5-/6------------------|
A|-5-/7------4-/5------3-/4------2-----------|
E|---------------------------------3---------|

 [Guitar 2]                 
E|-------------------------------------------|
B|-------------------------------------------|
G|-------------------------------------------|
D|-9--9------7--7------6--6------------------|
A|-7--7------5--5------4--4------------------|
E|-------------------------------7\3---------| 

[Solo]

E|------------------------------------------------|
B|------------------------------------------------|
G|------------------------------------------------|
D|-7-/9-9-9-9---6-/7-7-7-7---4-/6-6-6-6--4--------|
A|-5-/7-7-7-7---4-/5-5-5-5---2-/4-4-4-4--2-5--(5)-|
E|-----------------------------------------3--(3)-| 

  Guitar 1
E|-----------------------------------|
B|-----------------------------------|
G|-----------------------------------|
D|-7/9-----5-------7/9-----5---------|
A|-5/7-------7-----5/7-------7p5-7---|
E|-----------------------------------|
 [Guitar 2
E|-----------------------------------|
B|-----------------------------------|
G|-----------------------------------|
D|-----------------------------------|
A|-----------------------------------|
E|-----0-0-----0-0-----0-0-----0-0---| Rpt 4 X

  Guitar 1
E|--------------------------------------------------------------|
B|--------------------------------------------------------------|
G|--------------------------------------------------------------|
D|-------2---------------5--5--4--2-----2-----4-------(4)-------|
A|-5-----0------4--------3--3--2--0--5--0--4--2-------(2)-------|
E|---7-3----3-2-2--2-3p2-------------3-----2--------------------|
 [Guitar 2
E|--------------------------------------------------------------|
B|--------------------------------------------------------------|
G|--------------------------------------------------------------|
D|-------2---------------2--7-----5--7--7--2--4-------(4)-------|
A|-------0------4--------0--5--5--3--5--5--0--2-------(2)-------|
E|--------------2--------------3--------------------------------|

 Lead fill                                w/delay
E|--------------------------------------12----------------------|
B|-----------------------------------12-------------------------|
G|------------------------------9-12----------------------------|
D|-5p4-5/7p5-7/9p7-9/10p9-10/12---------------------------------|
A|--------------------------------------------------------------|
E|--------------------------------------------------------------|

 Clean guitar
E|------------------------------------------|
B|------------------------------------------|
G|------------------------------------------|
D|-7/9------9\7------7/9------9/12--12\7----|
A|-5/7------7\5------5/7------7/10--10\5----|
E|------------------------------------------|
  Rpt 2 X with distortion

 Backing for guitar solo
E|------------------------------------------|
B|------------------------------------------|
G|------------------------------------------|
D|-7/9---9--9\7---7--7/9---9--9/12--12\7----|
A|-5/7---7--7\5---5--5/7---7--7/10--10\5----|
E|------------------------------------------|

[Final]

E|-------------------------------------------------------------------|
B|-------------------------------------------------------------------|
G|-------------------------------------------------------------------|
D|----------\7----7---\5----5---\4----4------------------------------|
A|-5----5---\5----5---\3----3---\2----2------------------------------|
E|-3----3------------------------------------------------------------|

E|-----|
B|-----|
G|-----|
D|-2\--|
A|-2\--|
E|-0---| 
Composição de Al Atkins / Glenn Tipton / Håkan Lundqvist / K.K. Downing
Colaboração e revisão:
  • Matheus Motta
  • Bruna Cardoso
5.188 exibições
    • ½ Tom
    • Am
    • Bbm
    • Bm
    • Cm
    • C#m
    • Dm
    • Ebm
    • Em
    • Fm
    • F#m
    • Gm
    • G#m
  • Adicionar à lista

    0 comentários

    Ver todos os comentários

    Conseguiu tocar?

    1 Tocaram 0 Ainda não

    Grave um vídeo tocando Victim Of Changes e nos envie!

    00:00 / 00:00
    Outros vídeos desta música
    Repetir Qualidade Automático
    Outros vídeos desta música
    00:00 / 00:00
    Automático

    Cifra Club Pro

    Aproveite o Cifra Club com benefícios exclusivos e sem anúncios
    Cifra Club Pro
    Aproveite o Cifra Club com benefícios exclusivos e sem anúncios
    OK