Cifra Club

Victim Of Changes

Judas Priest

Cifra: Principal
exibições 3.897
Tom: G
Afinação: E  A  D  G  B  E
 
Intro:
                                                          
Guitar 1

E|-19p15p0-19p15p0-19p15p0-19p15p0-19p15p0-19p15p0-19p15p0-19p15p0---|
B|-------------------------------------------------------------------|
G|-------------------------------------------------------------------|
D|-------------------------------------------------------------------|
A|-------------------------------------------------------------------|
E|-------------------------------------------------------------------|

Guitar 2

E|-15p12p0-15p12p0-15p12p0-15p12p0-15p12p0-15p12p0-15p12p0-15p12p0---|
B|-------------------------------------------------------------------|
G|-------------------------------------------------------------------|
D|-------------------------------------------------------------------|
A|-------------------------------------------------------------------|
E|-------------------------------------------------------------------|

  Guitar 1
     h   h   h   h   h   h   h   h   h   h   h   h   h   h   h   h
E|-0-17-20-0-17-20-0-17-20-0-17-20-0-17-20-0-17-20-0-17-20-0-17-20---|
B|-------------------------------------------------------------------|
G|-------------------------------------------------------------------|
D|-------------------------------------------------------------------|
A|-------------------------------------------------------------------|
E|-------------------------------------------------------------------|
 
Guitar 2
     h   h   h   h   h   h   h   h   h   h   h   h   h   h   h   h
E|-0-14-17-0-14-17-0-14-17-0-14-17-0-14-17-0-14-17-0-14-17-0-14-17---|
B|-------------------------------------------------------------------|
G|-------------------------------------------------------------------|
D|-------------------------------------------------------------------|
A|-------------------------------------------------------------------|
E|-------------------------------------------------------------------|

Guitar 1

E|-19p15p0-19p15p0-19p15p0-19p15p0-19p15p0-19p15p0-19p15p0-19p15p0---|
B|-------------------------------------------------------------------|
G|-------------------------------------------------------------------|
D|-------------------------------------------------------------------|
A|-------------------------------------------------------------------|
E|-------------------------------------------------------------------|
 
Guitar 2
 
E|-15p12p0-15p12p0-15p12p0-15p12p0-15p12p0-15p12p0-15p12p0-15p12p0---|
B|-------------------------------------------------------------------|
G|-------------------------------------------------------------------|
D|-------------------------------------------------------------------|
A|-------------------------------------------------------------------|
E|-------------------------------------------------------------------|

Guitar 1

E|-17p14p0-17p14p0-17p14p0-17p14p0-17p14p0-17p14p0-17p14p0-17p14p0---|
B|-------------------------------------------------------------------|
G|-------------------------------------------------------------------|
D|-------------------------------------------------------------------|
A|-------------------------------------------------------------------|
E|-------------------------------------------------------------------|
 
Guitar 2
 
E|-14p11p0-14p11p0-14p11p0-14p11p0-14p11p0-14p11p0-14p11p0-14p11p0---|
B|-------------------------------------------------------------------|
G|-------------------------------------------------------------------|
D|-------------------------------------------------------------------|
A|-------------------------------------------------------------------|
E|-------------------------------------------------------------------|

Guitar 1
                   [-------PM---------]            
E|-17p15p0-12p10p0-----------------------|
B|-----------------12p10p0-10p8p0-8p7p0--|
G|---------------------------------------|
D|---------------------------------------|
A|---------------------------------------|
E|---------------------------------------|
 
Guitar 2
 
E|-17p15p0-12p10p0-----------------------|
B|-----------------12p10p0-10p8p0-8p7p0--|
G|---------------------------------------|
D|---------------------------------------|
A|---------------------------------------|
E|---------------------------------------|

Guitar 1
   [-----------PM----------------]     ph    ph
E|--------------------------------------------------|
B|-8p7p--8p7p--8p7p--8p7p--8p7p--8p7p--8p7p--8p7p---|
G|-----0-----0-----0-----0-----0-----0-----0-----0--|
D|--------------------------------------------------|
A|--------------------------------------------------|
E|--------------------------------------------------|
 
Guitar 2
 
E|--------------------------------------------------|
B|--------------------------------------------------|
G|-9p7p0-9p7p0-9p7p0-9p7p0-9p7p0-9p7p0-9p7p0-9p7p0--|
D|--------------------------------------------------|
A|--------------------------------------------------|
E|--------------------------------------------------|


As duas guitarras
  ph
E|----------------------------------|
B|----------------------------------|
G|-9p7------------------------------|
D|-----9-8-7------------------------|
A|-----------10-9-7-7-6-5-----------|
E|------------------------7-6-5\3\--|

 Main Riff

  
                    [--PM--]
E|-----------------------------|
B|-----------------------------|
G|-----------------------------|
D|-7/9----7/9----9\7-----------|
A|-5/7----5/7----7\5-----------|
E|-----00-----00-----7-6-5-3p--| Rpt 3 X
 
 Bridge Riff

    [PM]        [PM]      [PM]
E|------------------------------------------|
B|------------------------------------------|
G|-2---------5--5---/7---2---------5--5-----|
D|-2---------5--5---/7---2---------5--5--5--|
A|-0-0-0-3p0-3--3-0-/5---0-0-0-3p0-3--3--5--|
E|---------------------------------------3--|

 Rpt Main Riff 2 X

E|----------------------------------|
B|----------------------------------|
G|-9p7------------------------------|
D|-----9-8-7------------------------|
A|-----------10-9-7-7-6-5-----------|
E|------------------------7-6-5\3\--|

 Verse
                     h
E|------------------------------|
B|------------------------------|
G|--------------------12p9------|
D|------------------------------|
A|-2--------------(2)-----------|
E|-0--------------(0)-----------|

 Rpt Main Riff 2 X

                       h
E|------------------------------|
B|------------------------------|
G|------------------------------|
D|--------------------0-2p0-----|
A|-2--------------(2)-----------|
E|-0--------------(0)-----------|

 Rpt Main Riff 2 X
 Rpt Bridge
 Rpt Main Riff 2 X
 Rpt Bridge
 Rpt Main Riff 2 X

 Chorus

E|----------------------------------------|
B|----------------------------------------|
G|----------------------------------------|
D|---4-4-4----4----4---4-4-4----5---3---/-|
A|-0-2-2-2-00-2-00-2-0-2-2-2-00-3---2---/-|
E|----------------------------------------|

 Rpt Main Riff once

E|------------------|
B|------------------|
G|------------------|
D|-7/9----7/9----7--|
A|-5/7----5/7----5--|
E|-----00-----00----|
                                h        h
E|-------------------------------------------------------------------|
B|--------------10fb-10-8-10-8-----8---------------------------------|
G|-----------------------------7-9---9--7-9p7---7----------------7---|
D|--------------------------------------------9---9p7-9p7----7-9-----|
A|--------------------------------------------------------10-------7-|
E|-------------------------------------------------------------------|

  Guitar 1
E|-------------------------------------------------------------------|
B|-------------------------------------------------------------------|
G|-9----------9-----------9---------7----------7----------7----------|
D|-9----------9-----------9---------7----------7----------7----------|
A|-7----------7-----------7---------5----------5----------5----------|
E|-------------------------------------------------------------------|
  Guitar 2
E|-------------------------------------------------------------------|
B|-------------------------------------------------------------------|
G|-------------------------------------------------------------------|
D|-------------------------------------------------------------------|
A|-------------------------------------------------------------------|
E|-7p5p0-00-5p3p0-00-3p2p0-00-3p2p0-7p5p0-00-7p5p0-00-3p5p0-00-3p2p0-|

  Guitar 1
E|-------------------------------------------------------------------|
B|-------------------------------------------------------------------|
G|-7----------7-----------7---------2--------------4-----------------|
D|-7----------7-----------7---------2--------------4-----------------|
A|-5----------5-----------5------12\0--------------2-----------------|
E|-------------------------------------------------------------------|
  Guitar 2
E|-------------------------------------------------------------------|
B|-------------------------------------------------------------------|
G|-------------------------------------------------------------------|
D|-------------------------------------------------------------------|
A|-------------------------------------------------------------------|
E|-7p5p0-00-5p3p0-00-3p2p0-00-3p2p0-7p5p0-00-7p5p0-00-3p5p0-00-3p2p0-|

 Both guitars (Riff A)

E|-------------------------------------------------------------------|
B|-------------------------------------------------------------------|
G|-------------------------------------------------------------------|
D|-------------------------------------------------------------------|
A|-------------------------------------------------------------------|
E7p5p0-00-5p3p0-00-3p2p0-00-3p2p0-7p5p0-00-7p5p0-00-3p5p0-00-3p2p0-2|

 Rpt Verse and Chorus

                               h          h
E|---------------------------------------------------------|
B|-8fb--8fb-8\7\5---5\4-------1-3p1------3-1p0-------------|
G|----------------7-----7\5\2-------2-0-2------2p0---------|
D|-------------------------------------------------2p0-----|
A|-----------------------------------------------------3---|
E|---------------------------------------------------------|

  Guitar 1                         ~~~~~~
E|-------------------------------------------|
B|-------------------------------------------|
G|-------------------------------------------|
D|-2--2---------------------------2----------|
A|-0--0------5--5------4--4---------3----/---|
E|-----------3--3------2--2------------------|
 [Guitar 2                         ~~~~~~
E|-------------------------------------------|
B|-------------------------------------------|
G|-9--9--------------------------------------|
D|-7--7------12-12-----11-11------5----------|
A|-0--0------10-10-----9--9---------3----/---|
E|-------------------------------------------| Rpt

  Guitar 1                        ~~~~~~
E|-------------------------------------------|
B|-------------------------------------------|
G|-------------------------------------------|
D|-7-/9------6-/7------5-/6------------------|
A|-5-/7------4-/5------3-/4------2-----------|
E|---------------------------------3---------|
 [Guitar 2                        ~~~~~~
E|-------------------------------------------|
B|-------------------------------------------|
G|-------------------------------------------|
D|-9--9------7--7------6--6------------------|
A|-7--7------5--5------4--4------------------|
E|-------------------------------7\3---------| Rpt

 Backing for guitar solo

E|------------------------------------------------|
B|------------------------------------------------|
G|------------------------------------------------|
D|-7-/9-9-9-9---6-/7-7-7-7---4-/6-6-6-6--4--------|
A|-5-/7-7-7-7---4-/5-5-5-5---2-/4-4-4-4--2-5--(5)-|
E|-----------------------------------------3--(3)-| Rpt 10 X

  Guitar 1
E|-----------------------------------|
B|-----------------------------------|
G|-----------------------------------|
D|-7/9-----5-------7/9-----5---------|
A|-5/7-------7-----5/7-------7p5-7---|
E|-----------------------------------|
 [Guitar 2
E|-----------------------------------|
B|-----------------------------------|
G|-----------------------------------|
D|-----------------------------------|
A|-----------------------------------|
E|-----0-0-----0-0-----0-0-----0-0---| Rpt 4 X

  Guitar 1
E|--------------------------------------------------------------|
B|--------------------------------------------------------------|
G|--------------------------------------------------------------|
D|-------2---------------5--5--4--2-----2-----4-------(4)-------|
A|-5-----0------4--------3--3--2--0--5--0--4--2-------(2)-------|
E|---7-3----3-2-2--2-3p2-------------3-----2--------------------|
 [Guitar 2
E|--------------------------------------------------------------|
B|--------------------------------------------------------------|
G|--------------------------------------------------------------|
D|-------2---------------2--7-----5--7--7--2--4-------(4)-------|
A|-------0------4--------0--5--5--3--5--5--0--2-------(2)-------|
E|--------------2--------------3--------------------------------|

 Lead fill                                w/delay
E|--------------------------------------12----------------------|
B|-----------------------------------12-------------------------|
G|------------------------------9-12----------------------------|
D|-5p4-5/7p5-7/9p7-9/10p9-10/12---------------------------------|
A|--------------------------------------------------------------|
E|--------------------------------------------------------------|

 Clean guitar
E|------------------------------------------|
B|------------------------------------------|
G|------------------------------------------|
D|-7/9------9\7------7/9------9/12--12\7----|
A|-5/7------7\5------5/7------7/10--10\5----|
E|------------------------------------------|Rpt 16 X
  Rpt 2 X with distortion

 Backing for guitar solo
E|------------------------------------------|
B|------------------------------------------|
G|------------------------------------------|
D|-7/9---9--9\7---7--7/9---9--9/12--12\7----|
A|-5/7---7--7\5---5--5/7---7--7/10--10\5----|
E|------------------------------------------|Rpt 4 X


 Rpt Main Riff 4 X
 Rpt Riff A

 Ending
 
                                                        Feedback
E|-------------------------------------------------------------------|
B|-------------------------------------------------------------------|
G|-------------------------------------------------------------------|
D|----------\7----7---\5----5---\4----4------------------------------|
A|-5----5---\5----5---\3----3---\2----2------------------------------|
E|-3----3------------------------------------------------------------|

E|-----|
B|-----|
G|-----|
D|-2\--|
A|-2\--|
E|-0---| END
Acordes para:
    Colaboração e revisão:
    • Bruna Cardoso

    0 comentários

      mostrar mais comentários

      Conseguiu tocar?

      1tocaram0ainda não

      Grave um vídeo tocando Victim Of Changes e mande pra gente!

      00:00 / 00:00
      outros vídeos desta música
      repetirqualidadeautomática
      Outro vídeos desta música
        00:00 / 00:00
        automática
        OK