Cifra Club

That's What Love Is

Justin Bieber

Cifra: Principal (violão e guitarra)
tom: A
Intro e Verso
   A                                 
E|------9-----------------------------------|
B|------------7-----7-----7-----7-----------|
G|----9-----9-----9-----9-----9-------------|
D|-7-----7-----7-----7-----7-----9----------|
A|------------------------------------------|
E|------------------------------------------|

E|-----9------------------------------------|
B|-----------7-----7-----7-----7------------|
G|---9-----9-----9-----9-----9--------------|
D|-8----8-----8-----8-----8-----8-----------|
A|------------------------------------------|
E|------------------------------------------|

   Bm                   E
E|----------10-9-7--------------------------|
B|-----7-----------10---9-9-9-9-9-9---------|
G|---7---7--------------9-9-9-9-9-9---------|
D|-9--------------------9-9-9-9-9-9---------|
A|------------------------------------------|
E|------------------------------------------|

   A                   D
E|----------9-7-5---------------------------|
B|-----5----------9----7-7-7-7-7-7-7--------|
G|---6---6-------------7-7-7-7-7-7-7--------|
D|-7-------------------7-7-7-7-7-7-7--------|
A|------------------------------------------|
E|------------------------------------------|

   Bm                 E     E4
E|----------9-10-9-7------------------------|
B|--------------------9-9-9-10--12----------|
G|--------------------9-9-9-9---------------|
D|-----9--------------9-9-9-9---------------|
A|---9---9----------------------------------|
E|-7----------------------------------------|

A                                 
Ooh, and I can feel you

Even though I haven't touched you
Bm                   E
Yeah, that's what love is
A                   D
That's what true love is
Bm                 E     E4
Wouldn't want nobody else by my side

A                                 
Ooh, and you can trust me

After all the lies I told you
Bm                   E
Yeah, that's what love is
A                   D
That's what true love is
Bm                 E     E4
Don't nobody else deserve my time

A                                 
I reach out to you

But my hands can't hold enough
Bm                   E
Enough of your greatness
A                   D
You teach me patience
Bm                 E     E4
Like the best of our worlds collide

A                                 
Never understood what it meant

It meant to submit to love
Bm                   E
So beyond what lust is
A                   D
Hey, it's a blessing 
Bm                 E   E4
That you're in my life

A                                 
Make me look even better

When we shine, we shine together
Bm                   E
Yeah, that's what love is
A                   D
Now, that's what love is
Bm                 E     E4
Don't nobody else deserve my eyes

A                                 
When you demand my presence

It's hard to read the message
Bm                   E
I stay on the defense to take away your leverage
A                   D
'Til you put it in perspective
Bm                 E     E4
Can't help but to respect it

A                                 
Oh, now I know what love is

I know what true love is
Bm                   E
Yeah, down in my soul
A                   D
Far more than you know my self-esteem gets low
Bm                 E     E4
You lift it right up through the ceiling, woah

A                                 
Ooh, and I can feel you

Even though I haven't touched you
Bm                   E
Yeah, that's what love is
A                   D
Now, that's what love is
Bm                 E     E4
Wouldn't want nobody else by my side, no

A                                 
That's what love is

That's what love is
Bm                   E
I appreciate you
A                   D
God bless your maker, hey-hey
Bm                 E  E4
That's what love is
00:00 / 00:00
Outros vídeos desta música
Repetir
Outros vídeos desta música
Composição de Courtney Sills / Justin Bieber / Poo Bear / Sasha Sirota
Colaboração e revisão:
  • Renan Luiz
840 exibições
    • ½ Tom
    • A
    • Bb
    • B
    • C
    • Db
    • D
    • Eb
    • E
    • F
    • F#
    • G
    • Ab
  • Adicionar à lista

    0 comentários

    Ver todos os comentários

    Conseguiu tocar?

    0 Tocaram 0 Ainda não

    Grave um vídeo tocando That's What Love Is e nos envie!

    Entre para oCifra Club PRO

    Tenha acesso a benefícios exclusivos no App e no Site

    • Chega de anúncios

    • Prioridade de compra em lançamentos

    • Mais recursos no app do Afinador

    • Atendimento Prioritário

    • Descontos nos produtos Cifra Club

    • Ajude a produzir mais conteúdo

    00:00 / 00:00

    Cifra Club Pro

    Aproveite o Cifra Club com benefícios exclusivos e sem anúncios
    Cifra Club Pro
    Aproveite o Cifra Club com benefícios exclusivos e sem anúncios
    OK