Cifra Club

Aprenda

Like I Love You

Justin Timberlake

Cifra: Principal (violão e guitarra)
Tom: G
E|-----------------------------------------------------------|
B|-----------------------------------------------------------|
G|--4---4-4-4----4---4-4-4----4---4-4-4--------4-4-5-5-2-----|
D|--4---4-4-4----4---4-4-4----4---4-4-4--------4-4-5-5-2-----|
A|--2---2-2-2----2---2-2-2----2---2-2-2--------2-2-3-3-0-----|
E|-----------------------------------------------------------|

E|--7----5----2------5----7----2------7----5----2------0------2-|
B|--7----5----2------5----7----2------7----5----2------0------2-|
G|--7----5----2------5----7----2------7----5----2------0------2-|
D|--------------------------------------------------------------|
A|--------------------------------------------------------------|
E|--------------------------------------------------------------|

E|------------12-13-------------12-----|
B|-12---13------------12---13------12--|
G|-------------------------------------|
D|-------------------------------------|
A|-------------------------------------|
E|-------------------------------------|
Composição de Chad Hugo / Justin Timberlake / Pharrell Williams
Colaboração e revisão:
  • Josmael Lopes
  • andre
34.317 exibições
    • ½ Tom
    • A
    • Bb
    • B
    • C
    • Db
    • D
    • Eb
    • E
    • F
    • F#
    • G
    • Ab
  • Adicionar à lista

    0 comentários

    Mostrar mais comentários

    Conseguiu tocar?

    1 Tocaram 0 Ainda não

    Grave um vídeo tocando Like I Love You e mande pra gente!

    00:00 / 00:00
    outros vídeos desta música
    repetir qualidade Automático
    Outros vídeos desta música
    00:00 / 00:00
    Automático

    Cifra Club Pro

    Aproveite o Cifra Club com benefícios exclusivos e sem anúncios
    Cifra Club Pro
    Aproveite o Cifra Club com benefícios exclusivos e sem anúncios
    OK