Cifra Club

Aprenda

Love stoned

Justin Timberlake

Cifra: Principal (violão e guitarra)
Tom: Ab (forma dos acordes no tom de G) Capotraste na 1ª casa
 tabs & dicasNO Capo     Main Riff 
------- 

e|-------------------------------| 
B|-------------------------------| 
G|-------------------------------| 
D|------------------1---3--------| 
A|-----------1--3----------------| 
E|----1---4----------------1-----| 


or try it this way if you can 

e|-------------------------------| 
B|------------------4---6--------| G|-----------3--5----------------| 
D|----3---6---------1---3--3-----| 
A|-----------1--3----------------| 
E|----1---4----------------1-----| 

CAPO on 1st     Chorus Chords 
----------- 

C                                Em 
Those flashing lights come from everywhere 
C                              Em 
The way they hit her I had to stop and stare 
C                         Em 
She's got me love stoned, man 
                           Am 
I swear she's bad and she knows 
                  B 
I think that she knows 

* I may have mixed up the C and Am chords 
  Let me know which you think sounds better 

 tabs & dicasNO Capo     Guitar Piece - 2:39 
------- 

e|---13--13-13--...----| 
G|---13--13-13--...----| 
B|---13--13-13--...----| 
D|---15--15-15--...----| 
A|---------------------| 
E|---------------------| 

I Think She Knows Interlude 
........................... 

CAPO on 1st 
----------- 

e|---------------------------------------------------------------------------| 
B|------------------------------------3-3-3-3-3-3-3-3-5-5-5------------------| 
G|----4-4-4-4-4-4-4-4-2-2-2-0-0-0-0-0-4-4-4-4-4-4-4-4-7-7-7-4-4-4-4-4-4------| 
D|----5-5-5-5-5-5-5-5-4-4-4-2-2-2-2-2-5-5-5-5-5-5-5-5-4-4-4-5-5-5-5-5-5------| 
A|----7-7-7-7-7-7-7-7-5-5-5-3-3-3-3-3-----------------------7-7-7-7-7-7------| 
E|---------------------------------------------------------------------------| 

      Em              D     Cadd9     G               Dsus2  Em 

 * Note * 

e|--------| 
B|-----0--| 
G|--4--0--| 
D|--5--2--| 
A|--7-----| 
E|--------|  Em can be replaced with an easier version as shown 

e|-----| 
B|--3--| 
G|--4--| 
D|--2--| 
A|-----| 
E|-----|  I like to replace it with this chord after the Dsus2 


Timbaland strikes again


Final:

e|---------------------------------------------|
B|---------------------------------------------|
G|---------------------------------------------|
D|--10------8------6------13------15------10---|
A|--8-------6------4------11------13------8----|
E|---------------------------------------------|
                                   By: Danilo
Composição de Justin Timberlake / Nate Hills / Timothy Mosley
Colaboração e revisão:
  • Danilo Santos
22.197 exibições
    • ½ Tom
    • A
    • Bb
    • B
    • C
    • Db
    • D
    • Eb
    • E
    • F
    • F#
    • G
    • Ab
  • Adicionar à lista

    0 comentários

    Mostrar mais comentários

    Conseguiu tocar?

    0 Tocaram 0 Ainda não

    Grave um vídeo tocando Love stoned e mande pra gente!

    00:00 / 00:00
    outros vídeos desta música
    repetir qualidade Automático
    Outros vídeos desta música
    00:00 / 00:00
    Automático

    Cifra Club Pro

    Aproveite o Cifra Club com benefícios exclusivos e sem anúncios
    Cifra Club Pro
    Aproveite o Cifra Club com benefícios exclusivos e sem anúncios
    OK