Cifra Club

Aprenda

Rock Your Body

Justin Timberlake

Cifra: Principal (violão e guitarra)
Tom: D
iNTRO: 
E|---------------------------------------------------------------------------- 
B|---------------------------------------------------------------------------- 
G|---------------------------------------------------------------------------- 
D|----------------------------------------------------------------------------  x3 
A|--5-5----7--------------------5-5----7-------------------------------------- 
E|--3-3----5-----0---0--0--00---3-3----5-----0---0--0--00--------------------- 
 
vERSE: 
E|---------------------------------------------------------------------------- 
B|---------------------------------------------------------------------------- 
G|---------------------------------------------------------------------------- 
D|----------------------------------------------------------------------------  
A|--5-------------------5-5----7---------------------------------------------- 
E|--3-----0---0--0--00--3-3----5-----0---0--0--0-0---------------------------- 
 
E|---------------------------------------------------------------------------- 
B|---------------------------------------------------------------------------- 
G|---------------------------------------------------------------------------- 
D|----------------------------------------------------------------------------  
A|--5-5----7--------------------5-5----7-------------------------------------- 
E|--3-3----5-----0---0--0--00---3-3----5-----0---0--0--00--------------------- 
 
cHORUS 
E|---------------------------------------------------------------------------- 
B|---------------------------------------------------------------------------- 
G|---------------------------------------------------------------------------- 
D|----------------------------------------------------------------------------  x10 
A|--5-5----7---------------------5-5----7------------------------------------- 
E|--3-3----5------0---0--0--00---3-3----5----0---0--0--00--------------------- 
 
bRIDGE 
E|---------------------------------------------------------------------------- 
B|---------------------------------------------------------------------------- 
G|---------------------------------------------------------------------------- 
D|---------------------------------------------------------------------------- 
A|-7--5--7--5--7--7---12--12--5-5-7--7--7---5-7-5-5-7--5-5-7-7-7-12-12-12-12-- 
E|-5--3--5--3--5--5---10--10--3-3-5--5--5---3-5-3-3-5--3-3-5-5-7-10-10-10-10-- 
(SLIDE) 
E|---------------------------------------------------------------------------- 
B|---------------------------------------------------------------------------- 
G|---------------------------------------------------------------------------- 
D|---------------------------------------------------------------------------- 
A|-------5-5-7-----------------5-5-7------------------------------------------ 
E|-------3-3-5-0---0--0--0-00--3-3-5-0---0--0--0-00--------------------------- 
 
cHORUS 
E|---------------------------------------------------------------------------- 
B|---------------------------------------------------------------------------- 
G|---------------------------------------------------------------------------- 
D|----------------------------------------------------------------------------  x5 
A|--5-5----7---------------------5-5----7------------------------------------- 
E|--3-3----5------0---0--0--00---3-3----5----0---0--0--00--------------------- 
 
E|---------------------------------------------------------------------------- 
B|---------------------------------------------------------------------------- 
G|---------------------------------------------------------------------------- 
D|----------------------------------------------------------------------------  x4 
A|--5-5----7---------------------5-5----7------------------------------------- 
E|--3-3----5------0---0--0--00---3-3----5----0---0--0--00---------------------
Composição de Chad Hugo / Justin Timberlake / Pharrell Williams
Colaboração e revisão:
  • Liliane Lima
13.745 exibições
    • ½ Tom
    • A
    • Bb
    • B
    • C
    • Db
    • D
    • Eb
    • E
    • F
    • F#
    • G
    • Ab
  • Adicionar à lista

    0 comentários

    Mostrar mais comentários

    Conseguiu tocar?

    1 Tocaram 0 Ainda não

    Grave um vídeo tocando Rock Your Body e mande pra gente!

    00:00 / 00:00
    outros vídeos desta música
    repetir qualidade Automático
    Outros vídeos desta música
    00:00 / 00:00
    Automático

    Cifra Club Pro

    Aproveite o Cifra Club com benefícios exclusivos e sem anúncios
    Cifra Club Pro
    Aproveite o Cifra Club com benefícios exclusivos e sem anúncios
    OK