Cifra Club

Pisa Na Cabeça Dele

Juventude maldita

Cifra: Principal (violão e guitarra)
Tom: G#
Intro: C#5  F#5  C#5  G#5

Passagem 2x:

E|---------------------|
B|---------------------|
G|-5/6-6-6-6-6-6-6-6-6-|
D|-5/6-6-6-6-6-6-6-6-6-|
A|-3/4-4-4-4-4-4-4-4-4-|
E|---------------------|

Refrão:

C#5            F#5
 Pisa na cabeça dele
C#5            G#5
 Pisa na cabeça dele
C#5            F#5
 Pisa na cabeça dele
C#5  D#5     C5  C#5
 Até o sangue jorrar!

( C#5  F#5  C#5  G#5  C#5  F#5 )
( C#5  D#5  C5  C#5 )

(Versos)

(Passagem)

(Refrão)

(Solo)

E|-------------------------|-----------------------|-------------------------|---------------------|
B|-------------------------|-----------------------|-------------------------|---------------------|
G|-/6-8-8-8b9r8-6----------|-/6-8-8-8b9r8-6-8-8-8--|-/6-8-8-8b9r8-6----------|-/6-8-8-8b9r8-6---6~-|
D|----------------8-6---6--|-----------------------|----------------8-6---6--|----------------8----|
A|--------------------8----|-----------------------|--------------------8----|---------------------|
E|-------------------------|-----------------------|-------------------------|---------------------|
exibições 542
Acordes para:
    Colaboração e revisão:
    • junior

    0 comentários

    mostrar mais comentários

    Conseguiu tocar?

    0 tocaram 0 ainda não

    Grave um vídeo tocando Pisa Na Cabeça Dele e mande pra gente!

    00:00 / 00:00
    outros vídeos desta música
    repetir qualidade Automático
    Outros vídeos desta música
    00:00 / 00:00
    Automático
    OK