Cifra Club

Aprenda

Hard Times Send Me

Kaiser Chiefs

Cifra: Principal (violão e guitarra)
tom: D
At the intro and verses you go:
hard times send me....
e|---------------------|
B|---------------------|
G|---------------------|
D|--------9----9-------|x11
A|--------9----9-------|
E|--------7----7-------|

the last time go:
...tolat stragngers   
e|---------------------------|
B|---------------------------|
G|---------------------------|
D|----9---9-----9-9999999----|
A|----9---9-----9-9999999----|
E|----7---7-----7-7777777----|

Spend a day with a freind...
e|----------------------------------------------|
B|----------------------------------------------|
G|----------------------------------------------|
D|--7-77-5-3-2--2-3-33-2-0-----------7-77-5-3-2-|
A|--------------------------3-2-----------------|
E|----------------------------------------------|

STOP!
B|--------------------------------------------------------|
G|--------------------------------------------------------|
D|--------------------------------------------------------|
A|--------------------------------------------------------|
E|-1-1--0-1-1--0-1-1--0-1-1--0-1-1--0-1-1--0-1-1----------|

Then do the verse again.

e|---------------------|
B|---------------------|
G|---------------------|
D|--------9----9-------|x7
A|--------9----9-------|
E|--------7----7-------|

The last time you go:
  smells like urin.
e|---------------------------|
B|---------------------------|
G|---------------------------|
D|----9---9-----9-9999999----|
A|----9---9-----9-9999999----|
E|----7---7-----7-7777777----|

I'm the king of the world...
e|---------------------------------------------------------------|
B|---------------------------------------------------------------|
G|---------------------------------------------------------------|
D|--7-77-5-3-2--2-3-33-2-0-----------7-77-5-3-2--2-3-33-2-0------|
A|--------------------------3-2-------------------------------3-2|
E|---------------------------------------------------------------|

Laa Laa Laa Laa Laa Laa ...
e|---------------------------------------------------------------|
B|---------------------------------------------------------------|
G|---------------------------------------------------------------|
D|--7-77-5-3-2--2-3-33-2-0-----------7-77-5-3-2--2-3-33-2-0------|
A|--------------------------3-2-------------------------------3-2|
E|---------------------------------------------------------------|

STOP!
B|--------------------------------------------------------|
G|--------------------------------------------------------|
D|--------------------------------------------------------|
A|--------------------------------------------------------|
E|-1-1--0-1-1--0-1-1--0-1-1--0-1-1--0-1-1--0-1-1----------|

Now its time for the clapping bit.
Don't do anything but clap until the chorus starts again

Why are you rubbing your eyes...
e|---------------------------------------------------------------|
B|---------------------------------------------------------------|
G|---------------------------------------------------------------|
D|--7-77-5-3-2--2-3-33-2-0-----------7-77-5-3-2--2-3-33-2-0------|
A|--------------------------3-2-------------------------------3-2|
E|---------------------------------------------------------------|

Laa Laa Laa Laa Laa Laa ...
e|---------------------------------------------------------------|
B|---------------------------------------------------------------|
G|---------------------------------------------------------------|
D|--7-77-5-3-2--2-3-33-2-0-----------7-77-5-3-2--2-3-33-2-0------|
A|--------------------------3-2-------------------------------3-2|
E|---------------------------------------------------------------|

STOP!
B|--------------------------------------------------------|
G|--------------------------------------------------------|
D|--------------------------------------------------------|
A|--------------------------------------------------------|
E|-1-1--0-1-1--0-1-1--0-1-1--0-1-1--0-1-1--0-1-1----------|

End on...

e|---------------------|
B|---------------------|
G|---------------------|
D|--------9----9-------|
A|--------9----9-------|
E|--------7----7-------|
Colaboração e revisão:
  • Élison Duarte
485 exibições
    • ½ Tom
    • A
    • Bb
    • B
    • C
    • Db
    • D
    • Eb
    • E
    • F
    • F#
    • G
    • Ab
  • Adicionar à lista

    0 comentários

    Ver todos os comentários

    Conseguiu tocar?

    0 Tocaram 0 Ainda não

    Grave um vídeo tocando Hard Times Send Me e nos envie!

    00:00 / 00:00
    outros vídeos desta música
    repetir qualidade Automático
    Outros vídeos desta música
    00:00 / 00:00
    Automático

    Cifra Club Pro

    Aproveite o Cifra Club com benefícios exclusivos e sem anúncios
    Cifra Club Pro
    Aproveite o Cifra Club com benefícios exclusivos e sem anúncios
    OK