Cifra Club

Aprenda

Na Na Na Na Na

Kaiser Chiefs

Cifra: Versão 3 (violão e guitarra)
Já pensou em usar uma coleção de roupas do Cifra Club? Responda as perguntas abaixo e nos ajude nessa missão! →
tom: D
Song - Na na na na na
Tabber - Cal 

E|------------------------------------|
B|------------------------------------|
G|----9-9-9-9-9-9-9-9-9---------------|
D|----9-9-9-9-9-9-9-9-9---------------|
A|----7-7-7-7-7-7-7-7-7---------------|
E|------------------------------------|
Na na na na na…………….



E|-------------------------------|
B|-------------------------------|
G|-------------------------------|
D|--9-9-9-9-9-9-9-9--------------|
A|--9-9-9-9-9-9-9-9--------------|
E|--7-7-7-7-7-7-7-7--------------|
It does not get me going…………

Solo
Part 1
E|--------------------------------------|
B|--4-5-7b-7b-7b-7b---7-5-4-2-0---------|
G|--------------------------------------| x1
D|--------------------------------------|
A|--------------------------------------|
E|--------------------------------------|

Part 2
E|------------------7----------------------------------------------|
B|--4-5-7-7b-7b-7b----7-5-4-2-0------0-2-5--0-2-5--0-2-5-4p2p0--0--|
G|-----------------------------------------------------------------|
D|-----------------------------------------------------------------|
A|-----------------------------------------------------------------|
E|-----------------------------------------------------------------| x1

Then
Part 1 again
Riffs at top of page.

My contact address is *. Rock on
Composição de Adey Wilson / Nick Hodgson / Simon Rix
80 exibições
    • ½ Tom
    • A
    • Bb
    • B
    • C
    • Db
    • D
    • Eb
    • E
    • F
    • F#
    • G
    • Ab
  • Adicionar à lista

    0 comentários

    Ver todos os comentários

    Conseguiu tocar?

    0 Tocaram 0 Ainda não

    Grave um vídeo tocando Na Na Na Na Na e nos envie!

    00:00 / 00:00
    Outros vídeos desta música
    Repetir Qualidade Automático
    Outros vídeos desta música
    00:00 / 00:00
    Automático

    Cifra Club Pro

    Aproveite o Cifra Club com benefícios exclusivos e sem anúncios
    Cifra Club Pro
    Aproveite o Cifra Club com benefícios exclusivos e sem anúncios
    OK