Cifra Club

In Spite Of It All

Kalan Porter

Cifra: Principal (violão e guitarra)
tom: C
In Spite of It All
Tuning: Standard
Transcribed by Soch Hean

Intro: (Riff 1)
|-----------------------------------|
|-----------------------------------|
|-7=s9s7p5-------7=s9s7p5--7==b9----|
|----------7------------------------|
|-----------------------------------|
|-----------------------------------| (x2)

|----------------|
|----------------|
|----------------|
|-2-2---2-2------|
|-2-2---2-2------|
|-0-0---0-0------|

Verse: (0:19)
|--------------------------------------------------------------------|
|--------------------------------------------------------------------|
|------------------7-7-7-x-x-7-7-------------------------------------|
|-7-7-7-x-x-7-7----7-7-7-x-x-7-7----5-5-5-x-x-5-5----2-2-2-x-x-2-2---|
|-7-7-7-x-x-7-7--0-5-5-5-x-x-5-5----5-5-5-x-x-5-5----2-2-2-x-x-2-2---|
|-5-5-5-x-x-5-5-------------------0-3-3-3-x-x-3-3--0-0-0-0-x-x-0-0-0-|

|--------------------------------------------------------------------|
|--------------------------------------------------------------------|
|------------------7-7-7-x-x-7-7-------------------------------------|
|-7-7-7-x-x-7-7----7-7-7-x-x-7-7----5-5-5-x-x-5-5----2-2-2-x-x-2-2---|
|-7-7-7-x-x-7-7--0-5-5-5-x-x-5-5----5-5-5-x-x-5-5----2-2-2-x-x-2-2---|
|-5-5-5-x-x-5-5-------------------0-3-3-3-x-x-3-3--0-0-0-0-x-x-0-0-0-|

|--------------------------------------------------------------------|
|--------------------------------------------------------------------|
|------------------7-7-7-x-x-7-7-------------------------------------|
|-7-7-7-x-x-7-7----7-7-7-x-x-7-7----5-5-5-x-x-5-5----5-5-5-5-5-5-5-5-|
|-7-7-7-x-x-7-7--0-5-5-5-x-x-5-5----5-5-5-x-x-5-5----5-5-5-5-5-5-5-5-|
|-5-5-5-x-x-5-5-------------------0-3-3-3-x-x-3-3----3-3-3-3-3-3-3-3-|

Chorus: (0:41)
|-----------------------------------------------------------------------|
|-----------------------------------------------------------------------|
|-5-5--------------7-7--------------------------------------------------|
|-5-5--------------7-7--------------2-2--------------3-3----------------|
|-3-3-3-3-3-3-3-3--5-5-5-5-5-5-5-5--2-2--------------3-3----------------|
|-----------------------------------0-0-0-0-0-0-0-0--1-1-1-1-1-1-1-1----|
   PM|-----------|  PM|-----------|  PM|-----------|  PM|-----------|

|------------------------------------------------------------------------|
|------------------------------------------------------------------------|
|-5-5--------------7-7---------------------------------------------------|
|-5-5--------------7-7--------------2-2---------------3-3--------3-------|
|-3-3-3-3-3-3-3-3--5-5-5-5-5-5-5-5--2-2---------------3-3--------3-------|
|-----------------------------------0-0-0-0-0-0-0-0---1-1--------1-------|
   PM|-----------|  PM|-----------|  PM|-----------|   

(Play Riff 1) (In spite of it all...)
|----------------------------------------------------------------------|
|----------------------------------------------------------------------|
|------------------7-7-7-7-7-7-7-7-------------------------------------|
|-7-7-7-7-7-7-7-7--7-7-7-7-7-7-7-7--5-5-5-5-5-5-5-5--2-2-2-2-2-2-2-2---|
|-7-7-7-7-7-7-7-7--5-5-5-5-5-5-5-5--5-5-5-5-5-5-5-5--2-2-2-2-2-2-2-2---|
|-5-5-5-5-5-5-5-5-------------------3-3-3-3-3-3-3-3--0-0-0-0-0-0-0-0---|

|---------------------------------------------------------------------|
|---------------------------------------------------------------------|
|------------------7-7-7-7-7-7-7-7------------------------------------|
|-7-7-7-7-7-7-7-7--7-7-7-7-7-7-7-7--5-5-5-5-5-5-5-5---2-2-----2-2-----|
|-7-7-7-7-7-7-7-7--5-5-5-5-5-5-5-5--5-5-5-5-5-5-5-5---2-2-----2-2-----|
|-5-5-5-5-5-5-5-5-------------------3-3-3-3-3-3-3-3---0-0-----0-0-----|

Verse 2: (1:11)
|--------------------------------------------------------------------|
|--------------------------------------------------------------------|
|------------------7-7-7-x-x-7-7-------------------------------------|
|-7-7-7-x-x-7-7----7-7-7-x-x-7-7----5-5-5-x-x-5-5----2-2-2-x-x-2-2---|
|-7-7-7-x-x-7-7--0-5-5-5-x-x-5-5----5-5-5-x-x-5-5----2-2-2-x-x-2-2---|
|-5-5-5-x-x-5-5-------------------0-3-3-3-x-x-3-3--0-0-0-0-x-x-0-0-0-|

|--------------------------------------------------------------------|
|--------------------------------------------------------------------|
|------------------7-7-7-x-x-7-7-------------------------------------|
|-7-7-7-x-x-7-7----7-7-7-x-x-7-7----5-5-5-x-x-5-5----2-2-2-x-x-2-2---|
|-7-7-7-x-x-7-7--0-5-5-5-x-x-5-5----5-5-5-x-x-5-5----2-2-2-x-x-2-2---|
|-5-5-5-x-x-5-5-------------------0-3-3-3-x-x-3-3--0-0-0-0-x-x-0-0-0-|

|--------------------------------------------------------------------|
|--------------------------------------------------------------------|
|------------------7-7-7-x-x-7-7-------------------------------------|
|-7-7-7-x-x-7-7----7-7-7-x-x-7-7----5-5-5-x-x-5-5----5-5-5-5-5-5-5-5-|
|-7-7-7-x-x-7-7--0-5-5-5-x-x-5-5----5-5-5-x-x-5-5----5-5-5-5-5-5-5-5-|
|-5-5-5-x-x-5-5-------------------0-3-3-3-x-x-3-3----3-3-3-3-3-3-3-3-|

Chorus: 
|-----------------------------------------------------------------------|
|-----------------------------------------------------------------------|
|-5-5--------------7-7--------------------------------------------------|
|-5-5--------------7-7--------------2-2--------------3-3----------------|
|-3-3-3-3-3-3-3-3--5-5-5-5-5-5-5-5--2-2--------------3-3----------------|
|-----------------------------------0-0-0-0-0-0-0-0--1-1-1-1-1-1-1-1----|
   PM|-----------|  PM|-----------|  PM|-----------|  PM|-----------|

|------------------------------------------------------------------------|
|------------------------------------------------------------------------|
|-5-5--------------7-7---------------------------------------------------|
|-5-5--------------7-7--------------2-2---------------3-3--------3-------|
|-3-3-3-3-3-3-3-3--5-5-5-5-5-5-5-5--2-2---------------3-3--------3-------|
|-----------------------------------0-0-0-0-0-0-0-0---1-1--------1-------|
   PM|-----------|  PM|-----------|  PM|-----------| 

(Play Riff 1) (In spite of it all...)
|----------------------------------------------------------------------|
|----------------------------------------------------------------------|
|------------------7-7-7-7-7-7-7-7-------------------------------------|
|-7-7-7-7-7-7-7-7--7-7-7-7-7-7-7-7--5-5-5-5-5-5-5-5--2-2-2-2-2-2-2-2---|
|-7-7-7-7-7-7-7-7--5-5-5-5-5-5-5-5--5-5-5-5-5-5-5-5--2-2-2-2-2-2-2-2---|
|-5-5-5-5-5-5-5-5-------------------3-3-3-3-3-3-3-3--0-0-0-0-0-0-0-0---|

|---------------------------------------------------------------------|
|---------------------------------------------------------------------|
|------------------7-7-7-7-7-7-7-7------------------------------------|
|-7-7-7-7-7-7-7-7--7-7-7-7-7-7-7-7--5-5-5-5-5-5-5-5---2-2-----2-2-----|
|-7-7-7-7-7-7-7-7--5-5-5-5-5-5-5-5--5-5-5-5-5-5-5-5---2-2-----2-2-----|
|-5-5-5-5-5-5-5-5-------------------3-3-3-3-3-3-3-3---0-0-----0-0-----|

Breakdown: (2:03)
|--------------------------------------|
|--------------------------------------|
|--------------------------------------|
|--------------------5-5-5-5-5-5-5-5---|
|---7-7-7-7-7-7-7-7--3-3-3-3-3-3-3-3---|
|---5-5-5-5-5-5-5-5--------------------| (x2)
 PM|---------------------------------|

Bridge: (2:11)
|--------------------------------------|
|--------------------------------------|
|--------------------------------------|
|--------------------5-5-5-5-5-5-5-5---|
|---7-7-7-7-7-7-7-7--3-3-3-3-3-3-3-3---|
|---5-5-5-5-5-5-5-5--------------------| (x2)
 PM|---------------------------------|

|--------------------------------------|
|--------------------------------------|
|--------------------------------------|
|--------------------5-5-5-5-5-5-5-5---|
|---7-7-7-7-7-7-7-7--3-3-3-3-3-3-3-3---|
|---5-5-5-5-5-5-5-5--------------------| (x2)

Play during Chorus: Guitar Riff 2 - (2:26)
|------------------------------------------------|
|-13-------13-------13---------------------------|
|-15b17~---15b17~---15b17~---12-10s12--10-8------|
|-------------------------------------------10---|
|------------------------------------------------|
|------------------------------------------------|

|-------------------|
|-13----------------|
|-15b17~-(Repeat)---|
|-------------------|
|-------------------|
|-------------------|

Chorus: (2:26)
|-----------------------------------------------------------|
|-----------------------------------------------------------|
|-5-5--------------7-7--------------------------------------|
|-5-5--------------7-7--------------2-2--------------3-3----|
|-3-3--------------5-5--------------2-2--------------3-3----|
|-----------------------------------0-0--------------1-1----|

|------------------------------------------------------------------------|
|------------------------------------------------------------------------|
|-5-5--------------7-7---------------------------------------------------|
|-5-5--------------7-7--------------2-2--------------3-3-----------------|
|-3-3--------------5-5--------------2-2--------------3-3--3-3-3-3-3-3----|
|-----------------------------------0-0--------------1-1--1-1-1-1-1-1----|
                                                       PM|------------|

|-----------------------------------------------------------------------|
|-----------------------------------------------------------------------|
|-5-5-5-5-5-5-5-5--7-7-7-7-7-7-7-7--------------------------------------|
|-5-5-5-5-5-5-5-5--7-7-7-7-7-7-7-7--2-2-2-2-2-2-2-2--3-3-3-3-3-3-3-3----|
|-3-3-3-3-3-3-3-3--5-5-5-5-5-5-5-5--2-2-2-2-2-2-2-2--3-3-3-3-3-3-3-3----|
|-----------------------------------0-0-0-0-0-0-0-0--1-1-1-1-1-1-1-1----|

|------------------------------------------------------------------------|
|------------------------------------------------------------------------|
|-5-5-5-5-5-5-5-5--7-7-7-7-7-7-7-7---------------------------------------|
|-5-5-5-5-5-5-5-5--7-7-7-7-7-7-7-7--2-2-2-2-2-2-2-2---3-3---------3------|
|-3-3-3-3-3-3-3-3--5-5-5-5-5-5-5-5--2-2-2-2-2-2-2-2---3-3---------3------|
|-----------------------------------0-0-0-0-0-0-0-0---1-1---------1------|

(Play Riff 1) (In spite of it all...)
|----------------------------------------------------------------------|
|----------------------------------------------------------------------|
|------------------7-7-7-7-7-7-7-7-------------------------------------|
|-7-7-7-7-7-7-7-7--7-7-7-7-7-7-7-7--5-5-5-5-5-5-5-5--2-2-2-2-2-2-2-2---|
|-7-7-7-7-7-7-7-7--5-5-5-5-5-5-5-5--5-5-5-5-5-5-5-5--2-2-2-2-2-2-2-2---|
|-5-5-5-5-5-5-5-5-------------------3-3-3-3-3-3-3-3--0-0-0-0-0-0-0-0---| (x3)

Outro:
|---------------------------------------------------------------------|
|---------------------------------------------------------------------|
|------------------7-7-7-7-7-7-7-7------------------------------------|
|-7-7-7-7-7-7-7-7--7-7-7-7-7-7-7-7--5-5-5-5-5-5-5-5---2-2-----2-2-----|
|-7-7-7-7-7-7-7-7--5-5-5-5-5-5-5-5--5-5-5-5-5-5-5-5---2-2-----2-2-----|
|-5-5-5-5-5-5-5-5-------------------3-3-3-3-3-3-3-3---0-0-----0-0-----|

Legend:
s - slide
p - pulloff
PM - palm mute
b - bend
00:00 / 00:00
Outros vídeos desta música
Repetir
Outros vídeos desta música
Composição de Jeff Dalziel / Randy Bachman / Simon Wilcox
225 exibições
    • ½ Tom
    • A
    • Bb
    • B
    • C
    • Db
    • D
    • Eb
    • E
    • F
    • F#
    • G
    • Ab
  • Adicionar à lista

    0 comentários

    Ver todos os comentários

    Conseguiu tocar?

    0 Tocaram 0 Ainda não

    Grave um vídeo tocando In Spite Of It All e nos envie!

    00:00 / 00:00

    Cifra Club Pro

    Aproveite o Cifra Club com benefícios exclusivos e sem anúncios
    Cifra Club Pro
    Aproveite o Cifra Club com benefícios exclusivos e sem anúncios
    OK