Equilíbrio

Kamau

Composição de: . Jeffe / Kamau
tom: D
INTRO (2x a tab) 
  (Os acordes que acompanham a tab da intro são F7M - Eb  - Ab) (tocar uma vez pra baixo por acorde)
E|--------13-11-----------------------------------
B|-10----------------13-----14-13h14p13-----------
G|----10------------------------------------------
D|------------------------------------------------
A|------------------------------------------------
E|------------------------------------------------

E|--------13-11----------------13------------------
B|-10----------------13-13-------13-----13---------
G|----10-------------------------------------------
D|-------------------------------------------------
A|-------------------------------------------------
E|-------------------------------------------------


 (F7M)

A vida é: corda bamba sem rede de proteção
só quando se anda que se tem a noção
de que, muitos tentarão, poucos chegarão
exceção, um e um milhão tem disposição
tenta a sorte
não é questão de ver quem é mais forte
ou quem tem mais pontuação acima da nota de corte
é, questão de objetivo na busca
pra ser iluminado porque brilho se ofusca
eu só quero o que é meu
sem tirar de ninguém
com o dom que Deus deu, poder ir mais além
no caminho que escolhi, pra seguir, progredir
e levantar, se cair, mas manter, prosseguir

F7M       Eb     Ab
Eu vou buscar   onde for
             F7M
Como for preciso
Eb     Ab
Eu preciso encontrar [2x]

       (F7M)

meus sonhos me despertam
até que eu os torne em conquistas
minha meta não deixa que eu a perca de vista
realista, sei que nem tudo é tão poético
mas, não vou ser feliz observando o mundo sético
por isso equilibro vontade, necessidade
responsabilidade, felicidade
plena satisfação é utopia
mas faço o que posso pra ter minha cota todo dia
espero, poder cumprir com as obrigações
e quero, poder sumir com as preocupações
ter condições de ser o que eu sou
e deixar bem mais que saudade quando eu me for


F7M       Eb   Ab
Eu vou buscar onde for
             F7M
Como for preciso
Eb     Ab
Eu preciso encontrar [2x]

   (F7M)

Música é terapia
então, eu tenho que ser paciente
E ajudar pra que o Onisciente me oriente
a mudar a situação a meu favor
lutar com convicção aonde for
buscar sempre inspiração o bastante
pra olhar pro futuro e apreciar um instante
é evidente que quantia é suficiente
se eu dividir meu tempo e não me achar no quociente
agradeço por poder escolher
e ofereço cada linha traçada
ainda há muito trabalho a fazer
porque sucesso é caminhada
e não a linha de chegada
Página 1 / 1

Letras e título
Acordes e artista

resetar configurações
OK