Cifra Club

Aprenda

Nights Of Arabia

Kamelot

Cifra: Principal (violão e guitarra)
tom: C
Intro                    1        2
                __       __
|----------------------|--------|-------|
|----------------------|--------|-------|
|----0------0------0---|----0---|----02-|
|-44---4-44---4-44---4-|-24---4-|-24----|
|----------------------|--------|-------|
|----------------------|--------|-------|

Verse 1                  1      2
                        __     __
|-----|----------------|------|---------|
|-----|----------------|------|---------|
|-----|----------------|------|---------|
|-----|----4----5----4-|----2-|---------|
|---5-|----4----5----4-|----2-|---------|
|-0-3-|-2222-3333-2222-|-0000-|-235-023-|

Chorus

|-----------|(-------)|-------------------|-----------------|
|-----------|(-------)|-------------------|-----------------|
|-4---2-----|(-------)|-4---7---4---2-----|-----------------|
|-4---2---5-|(-2---4-)|-4---7---4---2---5-|-----------------|
|-2---0---5-|(-2---4-)|-2---5---2---0---5-|-----------------|
|---------3-|(-0---2-)|-----------------3-|-222333000222330-|

( Fill )

|-----------------|
|----------2----2-|
|-------34---34---|
|-24542-----------|
|-----------------|
|-----------------|

Verse 2

|-----------------------------------------
|-----------------------------------------
|-----------------------------------------
|-4---5---4---2---4---5---4---------------
|-4---5---4---2---4---5---4---------------
|-2---3---2---0---2---3---2--223355002233-

--------------------------------------------------|
--------------------------------------------------|
--------------------------------------------------|
-4--4--4--5--5--5--4--4--4--2--2--2------4----4---|
-4--4--4--5--5--5--4--4--4--2--2--2------4----4---|
-2222222..3333333..2222222..0000000..-2222-2222..-|

Chorus (see previous)

Mid Section 1

|-----------------2--------------|
|----3-----------3-3-------2-----|
|---4-4---------2---2-----2-2----|
|--4---4-%-%--2---2-|
|-2---------------------0--------|
|--------------------------------|

Mid Section 2      1-3                2-4
                   __                 __
|-----|-----------|------------------|-------------------|
|-----|-----------|------------------|-------------------|
|-----|-----------|------------------|-------------------|
|-4---|---4-2-5-4-|---------5--------|-----1-2-1"2'1-----|
|-4---|-2---------|-2-0---2----------|-2-3-----------3-2-|
|-2..-|-----------|-----3------0-5-0-|-------------------|

Mid Section 3

|--------------------------------|
|--------------------------------|
|--------------------------------|
|--------------------------------|
|--------------------------222..-|
|-222..555..111..222..555..------|

Solo (Don't know)

Verse 3

|-------------------------------------------------
|-------------------------------------------------
|-------------------------------------------------
|----4----5----4----2----------------4------5-----
|----4----5----4----2----------------4------5-----
|-2222-3333-2222-0000-(x2)-235-023-22222..33333..-

-------------------------|
-------------------------|
-------------------------|
---4------2--------------|
---4------2--------------|
-22222..00000..--235-023-|

Chorus (see previous)
Composição de Thomas Youngblood
Colaboração e revisão:
  • Hellektra
1.434 exibições
    • ½ Tom
    • A
    • Bb
    • B
    • C
    • Db
    • D
    • Eb
    • E
    • F
    • F#
    • G
    • Ab
  • Adicionar à lista

    0 comentários

    Ver todos os comentários

    Conseguiu tocar?

    1 Tocaram 0 Ainda não

    Grave um vídeo tocando Nights Of Arabia e nos envie!

    00:00 / 00:00
    outros vídeos desta música
    repetir qualidade Automático
    Outros vídeos desta música
    00:00 / 00:00
    Automático

    Cifra Club Pro

    Aproveite o Cifra Club com benefícios exclusivos e sem anúncios
    Cifra Club Pro
    Aproveite o Cifra Club com benefícios exclusivos e sem anúncios
    OK