Cifra Club

Carry On My Wayward Son

Kansas

Tab de baixo: Principal
exibições 14.337
[Introdução]

Parte 1 de 4 (2x)
G|----------------------------------------------|
D|---------------------5------------------------|
A|-------3-------5-5/7---7-5-3--5---5-----------|
E|-5-3-5---5-3-5------------------3---2---------|

Parte 2 de 4 (2x)
G|----------------------------------------------|
D|---------------5----------------------5-------|
A|-----7-7-----5---5-7-----5h7-7------5---5-7---|
E|-0-0-----5-7---------0-0--------5-7-----------|

Parte 3 de 4 (2x)
G|----------------------------------------------|
D|---------------------5------------------------|
A|-------3-------5-5/7---7-5-3--5---5-----------|
E|-5-3-5---5-3-5------------------3---2---------|

Parte 4 de 4
G|----------------------------------------------|
D|---------------5----------------------5-------|
A|-----7-7-----5---5-7-----5h7-7------5---5-7---|
E|-0-0-----5-7---------0-0--------5-7-----------|

G|----------------------------------------------|
D|-7---7--5---5---------------------------------|
A|---5------5-----------------------------------|
E|---------------1------------------------------|

[Primeira parte]

Carry on, my wayward son...

Parte 1 de 1

G|----------------------------------------------|
D|-5-7-5-3--------------------------------5-----|
A|---------3----------------3-5-3-1-3-5-3---x---|
E|-----------x-3-5-3-1-3--5-------------------3-|

G|----------------------------------------------|
D|----------------------------------------------|
A|----------------------------------------------|
E|-3-3-3-0--------------------------------------|


[Refrão]

Carry on, my wayward son...

Parte 1 de 1
G|----------------------------------------------|
D|----------------------------------------------|
A|---2-3-------------2-3------------------2-3---|
E|-5-----0-3-0-1-0-5-----0-3--3-3-0-3-0-5-------|

G|----------------------------------------------|
D|----------------------------------------------|
A|--------------5-3-----------------------------|
E|-0-3-0-1-0-1----------------------------------|


[Introdução 2]

Parte 1 de 4 (2x)
G|----------------------------------------------|
D|---------------------5------------------------|
A|-------3-------5-5/7---7-5-3--5---3-----------|
E|-5-3-5---5-3-5------------------3---2---------|

[Segunda parte]

Masquerading as a man with a reason...

Parte 1 de 1
G|----------------------------------------------|
D|----------------------------------------------|
A|-----------------------------------------3-5--|
E|-5--5-3--3-1--1-3--3-5--5-3--3-1--1-3--5------|

G|----------------------------------------------|
D|--------------------------5-------------------|
A|-5-3--3-1--1-1--3-5--5-3----x-----------------|
E|------------------------------3--0-3----------|

Parte 2 de 2
G|----------------------------------------------|
D|----------------------------------------------|
A|-----------------------------------------3-5--|
E|-5--5-3--3-1--1-3--3-5--5-3--3-1--1-3--5------|

G|----------------------------------------------|
D|--------------------------5-------------------|
A|-5-3--3-1--1-1--3-5--5-3----5-----------------|
E|------------------------------3---------------|


[Refrão 2]

Carry on, my wayward son...

Parte 1 de 1
G|----------------------------------------------|
D|----------------------------------------------|
A|---2-3-------------2-3------------------2-3---|
E|-5-----0-3-0-1-0-5-----0-3--3-3-0-3-0-5-------|

G|----------------------------------------------|
D|----------------------------------------------|
A|----------------------------------------------|
E|-0-3-0-1-0-1----------------------------------|


[Terceira parte - 2x]

Parte 1 de 2 (2x)
G|----------------------------------------------|
D|---7-5------------------------7-5-------------|
A|-0-----7-5-3---3-5-----5-3--0-----7-5-3---3-5-|
E|-------------5-----3-5------------------5-----|

G|----------------------------------------------|
D|----------------------------------------------|
A|-----5----------------------------------------|
E|-3-5------------------------------------------|

Parte 2 de 2
G|----------------------------------------------|
D|------------------5---------------------------|
A|---7-5-4-------5-------7-5-4-2-5-------3------|
E|-0-------7-5-3-------0-----------2-3-4--------|


[Introdução 3]

Parte 1 de 1 (2x)
G|----------------------------------------------|
D|---------------------5------------------------|
A|-------3-------5-5/7---7-5-3--5---3-----------|
E|-5-3-5---5-3-5------------------3---2---------|


[Quarta parte]

(Carry on) you will always remember...

Parte 1 de 1
G|----------------------------------------------|
D|----------------------------------------------|
A|-------------------3-------------------3------|
E|-5-5--3-1--0-1-3-5---5-5--3-1--0-1-3-5--------|

G|----------------------------------------------|
D|----------------------3-----------5-----------|
A|-5--5-3--3-1--0-1-3-5---5--5-3--3-------------|
E|-------------------------------------3--------|


[Refrão 3]

Carry on, my wayward son...

Parte 1 de 2
G|----------------------------------------------|
D|----------------------------------------------|
A|---2-3-------------2-3------------------2-3---|
E|-5-----0-3-0-1-0-5-----0-3--3-3-0-3-0-5-------|

G|----------------------------------------------|
D|----------------------------------------------|
A|----------------------------------------------|
E|-0-3-0-1-0-1----------------------------------|
 
Parte 2 de 2 (2x)
G|----------------------------------------------|
D|---------------5----------------------5-------|
A|-----7-7-----5---5-7-----5h7-7------5---5-7---|
E|-0-0-----5-7---------0-0--------5-7-----------|


[Introdução 3] 

Parte 1 de 5 (3x)
G|----------------------------------------------|
D|-----4-2-------4-2----------------------------|
A|---------4---------4--------------------------|
E|-2-2-------2-2-------5-5-7-0-0----------------|

Parte 2 de 5
G|----------------------------------------------|
D|-----4-2-------4-2----------------------------|
A|---------4---------4--------------------------|
E|-2-2-------2-2-------5-5-7--------------------|

Parte 3 de 5 ( 2x) 
G|----------------------------------------------|
D|---------------5----------------------5-------|
A|-----7-7-----5---5-7-----5h7-7------5---5-7---|
E|-0-0-----5-7---------0-0--------5-7-----------|

Parte 4 de 5 (3x)
G|----------------------------------------------|
D|-----4-2-------4-2----------------------------|
A|---------4---------4--------------------------|
E|-2-2-------2-2-------5-5-7-0-0----------------|

Parte 5 de 5 
G|----------------------------------------------|
D|-7---7--5---5---------------------------------|
A|---5------5-----------------------------------|
E|---------------1------------------------------|
Colaboração e revisão:
  • Reginaldo Costa

0 comentários

    mostrar mais comentários

    Conseguiu tocar?

    4tocaram1ainda não

    Grave um vídeo tocando Carry On My Wayward Son e mande pra gente!

    00:00 / 00:00
    outros vídeos desta música
    repetirqualidadeAutomático
    Outro vídeos desta música
      00:00 / 00:00
      Capítulos
      • Tocando a música
      • Introdução - Parte 4 de 4
      • Apresentação / Equipamentos
      • Configurações pedais
      • Dicas Iniciais
      • Introdução - Parte 1 de 4
      • Introdução - Parte 2 de 4
      • Introdução - Parte 3 de 4
      • Primeira Parte
      • Refrão
      • Introdução 2
      • Dicas Segunda Parte - Quarta Parte
      • Segunda Parte - Parte 1 de 2
      • Segunda Parte - Parte 2 de 2
      • Segundo Refrão
      • Terceira Parte - Parte 1 de 2
      • Terceira Parte - Parte 2 de 2
      • Quarta Parte
      • Dicas Terceiro Refrão - Final
      • Terceiro Refrão - Parte 1 de 2
      • Terceiro Refrão - Parte 2 de 2
      • Introdução 3 - Parte 1 de 5
      • Introdução 3 - Parte 2 de 5
      • Introdução 3 - Parte 3 de 5
      • Introdução 3 - Parte 4 de 5
      • Introdução 3 - Parte 5 de 5
      • Encerramento
      OK